Något

Chords

01234567891011121314151617181920212223
E
B
G
D
A
E
B
0 1 2 3 4 5 6 7 8 9 10 11 12 13 14 15 16 17 18 19 20 21 22 23
(/) Slide Up  (\) Slide Down  (h) Hammer On  (p) Pull Off  (b) Bend (r) Release (v) Vibrato

Stave 1:

E|-----------3-----------------3-----------------3-----------------3--------------------------------------------------------------------------------
B|--------1-----1-----------1-----1-----------1-----1-----------1-----1--------------3-----------------3-----------------3-----------------3--------
G|-----2-----------2-----2-----------------2-----------2-----2--------------------0-----0-----------0-----0-----------0-----0-----------0-----0-----
D|--3-----------------3--------------3--0-----------------0--------------0-----2-----------2-----2-----------------2-----------2-----2-----------2--
A|--------------------------------------------------------------------------3-----------------3--------------3--0-----------------0-----------------
E|--------------------------------------------------------------------------------------------------------------------------------------------------

Stave 2:

E|--3-----------------------------------3-----------------------------------0-----------------------------------0-----------------------------------
B|--1-----------------------------------1-----------------------------------3-----------------------------------2-----------------------------------
G|--2-----------------------------------2-----------------------------------0-----------------------------------0-----------------------------------
D|--3-----------------------------------0-----------------------------------2-----------------------------------3-----------------------------------
A|--0-----------------------------------0-----------------------------------3-----------------------------------0-----------------------------------
E|--0-----------------------------------0-----------------------------------0-----------------------------------0-----------------------------------

							http://www.guitartabcreator.com
Instruments
{"strings":[[[],[],[],[],[],[]]],"numberofstrings":6,"notes":["E","B","G","D","A","E","B"],"capo":0,"stringnotes":["E4","B3","G3","D3","A2","E2"],"comments":["Stave 1:"],"timing":[[]],"timingvisible":false,"tabcounter":0,"stave":0,"totalstaves":1,"instrument":"6guitar","selectedtuning":"6_standard","version":"13"}

Member for

1 month 2 weeks
Submitted by L3ST3R on Tue, 2020-12-01 07:02