Sound will begin in 5 seconds

bach

01234567891011121314151617181920212223
E
B
G
D
A
E
B
0 1 2 3 4 5 6 7 8 9 10 11 12 13 14 15 16 17 18 19 20 21 22 23
Song Science #1: How Pros Use 6 Chords to Write Hit Songs
(/) Slide Up  (\) Slide Down  (h) Hammer On  (p) Pull Off  (b) Bend (r) Release (v) Vibrato

Stave 1:

E|----------------------------------|--17------------------------------|----------------------------------
B|------15--17--19------19--17--15--|------15--17--19------19--17--15--|--20--17--19--20------------------
G|------------------14--------------|------------------14--------------|------------------16--19--18--16--
D|----------------------------------|----------------------------------|----------------------------------
A|--17------------------------------|----------------------------------|----------------------------------
E|----------------------------------|----------------------------------|----------------------------------

Stave 2:

E|----------------------------------|----------------------------------|----------------------------------
B|------17--19--20------20--19--17--|--19--15--17--19------------------|------15--17--19------22--21--19--
G|--18------------------------------|------------------14--18--16--14--|--16--------------16--------------
D|------------------19--------------|----------------------------------|----------------------------------
A|----------------------------------|----------------------------------|----------------------------------
E|----------------------------------|----------------------------------|----------------------------------

Stave 3:

E|----------------------------------|----------------------------------|----------------------------------
B|--21--17--19--21------------------|------14--15--17------17--15--14--|--15------14--15------------------
G|------------------16--19--18--16--|--14------------------------------|------16--------------14--13------
D|----------------------------------|------------------16--------------|------------------16----------16--
A|----------------------------------|----------------------------------|----------------------------------
E|----------------------------------|----------------------------------|----------------------------------

Stave 4:

E|----------------------------------|----------------------------------|----------------------------------
B|----------14--15------15--14------|--14------------------------------|--------------14------17--16--14--
G|--13--16----------------------16--|------14--16--18------------------|------14--16----------------------
D|------------------14--------------|------------------14--17--16--14--|--16--------------16--------------
A|----------------------------------|----------------------------------|----------------------------------
E|----------------------------------|----------------------------------|----------------------------------

Stave 5:

E|----------------------------------|----------------------------------|----------------------------------
B|--16------------------------------|----------------------------------|----------------------------------
G|------16--18--20------------------|----------------------19--18--16--|----------------------------------
D|------------------16--19--18--16--|------17--19--21------------------|--20------16--17------17--16------
A|----------------------------------|--19--------------16--------------|------19----------16----------19--
E|----------------------------------|----------------------------------|----------------------------------

Stave 6:

E|--
B|--
G|--
D|--
A|--
E|--

http://www.guitartabcreator.com
Guitar Tab Creator is intended to store guitar tab created through the tool. It currently does not support in-line text editing. Any text you place in here will be lost. If you need to comment on your tab, please use the "Tab Notes" section located below.