Sound will begin in 5 seconds

Harmony thinking out loud

Chords
01234567891011121314151617181920212223
E
B
G
D
A
E
B
0 1 2 3 4 5 6 7 8 9 10 11 12 13 14 15 16 17 18 19 20 21 22 23
Song Science #1: How Pros Use 6 Chords to Write Hit Songs
(/) Slide Up  (\) Slide Down  (h) Hammer On  (p) Pull Off  (b) Bend (r) Release (v) Vibrato

Stave 1:

E|----------------------------------------------------------------------
B|----------------------------------------------------------------------
G|------------------11--12--12/14\12--11h12--11--11-12/---11-12-----11--
D|----------12--14-------------------------------12/14----12/14-----12--
A|--12--14--------------------------------------------------------------
E|----------------------------------------------------------------------

Stave 2:

E|--------------------------------------------------------
B|---------------------------------15---------------------
G|------------------11--12--12/14------14\12--11--12--11--
D|----------12--14----------------------------------------
A|--12--14------------------------------------------------
E|--------------------------------------------------------

Stave 3:

E|--14--15--14--15-----14-----15--17--15--14--14--17-----14--15--14--15--14-----15----------------------------
B|--15--17--15--17-----15-----17--19--17--15--15--19-----15--17--15--17--15-----17-----------------------15v--
G|--------------------------------------------_------------------------------------12h14p12--11--12/14-------
D|--------------------------------------------_--------------------------------------------------------------
A|--------------------------------------------_--------------------------------------------------------------
E|--------------------------------------------_--------------------------------------------------------------

Stave 4:

E|--15--15--15--14--14--14--12--12--12--10--10--10--
B|--17--17--17--15--15--15--14--14--14--10--10--10--
G|--------------------------------------------------
D|--------------------------------------------------
A|--------------------------------------------------
E|--------------------------------------------------

http://www.guitartabcreator.com
Guitar Tab Creator is intended to store guitar tab created through the tool. It currently does not support in-line text editing. Any text you place in here will be lost. If you need to comment on your tab, please use the "Tab Notes" section located below.