Cloud Number - Bryan Adams

01234567891011121314151617181920212223
E
B
G
D
A
E
B
0 1 2 3 4 5 6 7 8 9 10 11 12 13 14 15 16 17 18 19 20 21 22 23
(/) Slide Up  (\) Slide Down  (h) Hammer On  (p) Pull Off  (b) Bend (r) Release (v) Vibrato

Stave 1:

E|------------------------------------------------------------------------------------------------------------------------------------------------------------------------------------------------
B|------------------------------------------------------------------------------------------------------------------------------------------------------------------------------------------------
G|------------------------------------------------------------------------------------------------------------------------------------------------------------------------------------------------
D|--2--4--4--4-----2--2--2--2--4--4--4--------4--5--5--5--4\2--2--4--5--5--5--------4--5--5--5--4--4--2--4--5--5--7-----4--5--5--5\2--5--5--4--4--4-----------------------------------------------
A|------------------------------------------------------------------------------------------------------------------------------------------------------------------------------------------------
E|------------------------------------------------------------------------------------------------------------------------------------------------------------------------------------------------

Stave 2:

E|-----------------------------------------------------------------------------------------------------------
B|-----------------3--3--3--3--2--2-----------------------------------3--3--3--2--2--------------------------
G|-----------------------------------4--4--4--2--2-----------------------------------4--4--2-----2--2--4--4--
D|--0-----------------------------------------------5--5--4--------------------------------------------------
A|-----------------------------------------------------------------------------------------------------------
E|-----------------------------------------------------------------------------------------------------------

Stave 3:

E|-----------------------------------------------------------------------------------------------------------------------
B|--------5--7--7--------5--7--7--7--7--7--8--8--7--5--7--8--8-----7--7--7\5--5--5\3--3--3\2--------5--8--8--7--5--7-----
G|--7--7-----------7--7-----------------------------------------------------------------------------------------------7--
D|-----------------------------------------------------------------------------------------------------------------------
A|-----------------------------------------------------------------------------------------------------------------------
E|-----------------------------------------------------------------------------------------------------------------------

							http://www.guitartabcreator.com
Chords

Instruments
{"strings":[[[".",".",".",".","_",".",".",".",".",".",".",".","_","_",".",".",".",".",".",".",".",".",".",".",".",".","_","_",".",".",".",".",".",".",".",".",".",".",".","_",".",".",".",".",".",".",".",".",".",".",".","_","_","_","_","_","_","_","_","_","_","_","_","_","_","_"],[".",".",".",".","_",".",".",".",".",".",".",".","_","_",".",".",".",".",".",".",".",".",".",".",".",".","_","_",".",".",".",".",".",".",".",".",".",".",".","_",".",".",".",".",".",".",".",".",".",".",".","_","_","_","_","_","_","_","_","_","_","_","_","_","_","_"],[".",".",".",".","_",".",".",".",".",".",".",".","_","_",".",".",".",".",".",".",".",".",".",".",".",".","_","_",".",".",".",".",".",".",".",".",".",".",".","_",".",".",".",".",".",".",".",".",".",".",".","_","_","_","_","_","_","_","_","_","_","_","_","_","_","_"],[2,4,4,4,"_",2,2,2,2,4,4,4,"_","_",4,5,5,5,4,"\\",2,2,4,5,5,5,"_","_",4,5,5,5,4,4,2,4,5,5,7,"_",4,5,5,5,"\\",2,5,5,4,4,4,"_","_","_","_","_","_","_","_","_","_","_","_","_","_","_"],[".",".",".",".","_",".",".",".",".",".",".",".","_","_",".",".",".",".",".",".",".",".",".",".",".",".","_","_",".",".",".",".",".",".",".",".",".",".",".","_",".",".",".",".",".",".",".",".",".",".",".","_","_","_","_","_","_","_","_","_","_","_","_","_","_","_"],[".",".",".",".","_",".",".",".",".",".",".",".","_","_",".",".",".",".",".",".",".",".",".",".",".",".","_","_",".",".",".",".",".",".",".",".",".",".",".","_",".",".",".",".",".",".",".",".",".",".",".","_","_","_","_","_","_","_","_","_","_","_","_","_","_","_"]],[[".","_","_","_","_",".",".",".",".",".",".",".",".",".",".",".",".",".",".","_","_","_",".",".",".",".",".",".",".",".","_",".",".",".","."],[".","_","_","_","_",3,3,3,3,2,2,".",".",".",".",".",".",".",".","_","_","_",3,3,3,2,2,".",".",".","_",".",".",".","."],[".","_","_","_","_",".",".",".",".",".",".",4,4,4,2,2,".",".",".","_","_","_",".",".",".",".",".",4,4,2,"_",2,2,4,4],[0,"_","_","_","_",".",".",".",".",".",".",".",".",".",".",".",5,5,4,"_","_","_",".",".",".",".",".",".",".",".","_",".",".",".","."],[".","_","_","_","_",".",".",".",".",".",".",".",".",".",".",".",".",".",".","_","_","_",".",".",".",".",".",".",".",".","_",".",".",".","."],[".","_","_","_","_",".",".",".",".",".",".",".",".",".",".",".",".",".",".","_","_","_",".",".",".",".",".",".",".",".","_",".",".",".","."]],[[".",".",".",".",".",".",".",".",".",".",".",".",".",".",".",".",".",".",".",".","_",".",".",".",".",".",".",".",".",".",".",".",".",".","_","_",".",".",".",".",".",".","."],[".",".",5,7,7,".",".",5,7,7,7,7,7,8,8,7,5,7,8,8,"_",7,7,7,"\\",5,5,5,"\\",3,3,3,"\\",2,"_","_",5,8,8,7,5,7,"."],[7,7,".",".",".",7,7,".",".",".",".",".",".",".",".",".",".",".",".",".","_",".",".",".",".",".",".",".",".",".",".",".",".",".","_","_",".",".",".",".",".",".",7],[".",".",".",".",".",".",".",".",".",".",".",".",".",".",".",".",".",".",".",".","_",".",".",".",".",".",".",".",".",".",".",".",".",".","_","_",".",".",".",".",".",".","."],[".",".",".",".",".",".",".",".",".",".",".",".",".",".",".",".",".",".",".",".","_",".",".",".",".",".",".",".",".",".",".",".",".",".","_","_",".",".",".",".",".",".","."],[".",".",".",".",".",".",".",".",".",".",".",".",".",".",".",".",".",".",".",".","_",".",".",".",".",".",".",".",".",".",".",".",".",".","_","_",".",".",".",".",".",".","."]]],"numberofstrings":6,"notes":["E","B","G","D","A","E","B"],"capo":0,"stringnotes":["E4","B3","G3","D3","A2","E2"],"comments":["Stave 1:","Stave 2:","Stave 3:"],"timing":[["W","W","W","W","W","W","W","W","W","W","W","W","W","W","W","W","W","W","W",null,"W","W","W","W","W","W","W","W","W","W","W","W","W","W","W","W","W","W","W","W","W","W","W","W",null,"W","W","W","W","W","W","W","W","W","W","W","W","W","W","W","W","W","W","W","W","W"],["W","W","W","W","W","W","W","W","W","W","W","W","W","W","W","W","W","W","W","W","W","W","W","W","W","W","W","W","W","W","W","W","W","W","W"],["W","W","W","W","W","W","W","W","W","W","W","W","W","W","W","W","W","W","W","W","W","W","W","W",null,"W","W","W",null,"W","W","W",null,"W","W","W","W","W","W","W","W","W","W"]],"timingvisible":false,"tabcounter":43,"stave":2,"totalstaves":3,"instrument":"6guitar","selectedtuning":"6_standard","version":"13"}

Member for

4 years 7 months
Submitted by kunalbhatia8 on Wed, 2021-10-06 13:57