Can I Call You Back - Shy Martin

Chords

01234567891011121314151617181920212223
E
B
G
D
A
E
B
0 1 2 3 4 5 6 7 8 9 10 11 12 13 14 15 16 17 18 19 20 21 22 23
(/) Slide Up  (\) Slide Down  (h) Hammer On  (p) Pull Off  (b) Bend (r) Release (v) Vibrato

Capo Fret 2

Stave 1:

E|--------------------------------------------------------------------------------------------------
B|-----0-----0-----0-----0-----0-----0-----3-----3-----0-----0-----0-----0-----0-----0-----3-----3--
G|--0-----0-----0-----0-----0-----0-----4-----4-----0-----0-----0-----0-----0-----0-----4-----4-----
D|--------------------------------------------------------------------------------------------------
A|--------------------------------------------------------------------------------------------------
E|--------------------------------------------------------------------------------------------------

Stave 2:

E|-----------------------------------------------------------------------------------2-----2-----2--
B|-----0-----0-----0-----0-----0-----0-----3-----3-----0-----0-----0-----0-----0--------3-----3-----
G|--0-----0-----0-----0-----0-----0-----4-----4-----0-----0-----0-----0-----0-----0-----------------
D|--------------------------------------------------------------------------------------------------
A|--------------------------------------------------------------------------------------------------
E|--------------------------------------------------------------------------------------------------

Stave 3:

E|-----0-----0-----0-----0-----0-----0-----2-----2--------------------------------------------------
B|--1-----1-----1-----1-----1-----1-----3-----3--------0-----0-----0-----0-----0-----0--------------
G|--------------------------------------------------0-----0-----0-----0-----0-----0--------3-----3--
D|--------------------------------------------------------------------------------------4-----4-----
A|--------------------------------------------------------------------------------------------------
E|--------------------------------------------------------------------------------------------------

Stave 4:

E|--------------------------------------------------------------------------------------------------
B|--------------------------------------------------------------------------------------------------
G|-----------------------------0-----0-----0-----0-----------------------------0-----0-----0--------
D|-----2-----2-----2-----2--2-----2-----2-----2--------4-----4-----4-----4--2-----2-----2--------4--
A|--3-----3-----3-----3-----------------------------5-----5-----5-----5-----------------------5-----
E|--------------------------------------------------------------------------------------------------

							http://www.guitartabcreator.com
Tab Notes
Stave 1 - Intro Stave 2 & 3 - verse 1 (repeat 2x) Stave 4 - prechorus_chorus (repeat 4x)
Instruments
{"strings":[[[".",".",".",".",".",".",".",".",".",".",".",".",".",".",".",".",".",".",".",".",".",".",".",".",".",".",".",".",".",".",".","."],[".",0,".",0,".",0,".",0,".",0,".",0,".",3,".",3,".",0,".",0,".",0,".",0,".",0,".",0,".",3,".",3],[0,".",0,".",0,".",0,".",0,".",0,".",4,".",4,".",0,".",0,".",0,".",0,".",0,".",0,".",4,".",4,"."],[".",".",".",".",".",".",".",".",".",".",".",".",".",".",".",".",".",".",".",".",".",".",".",".",".",".",".",".",".",".",".","."],[".",".",".",".",".",".",".",".",".",".",".",".",".",".",".",".",".",".",".",".",".",".",".",".",".",".",".",".",".",".",".","."],[".",".",".",".",".",".",".",".",".",".",".",".",".",".",".",".",".",".",".",".",".",".",".",".",".",".",".",".",".",".",".","."]],[[".",".",".",".",".",".",".",".",".",".",".",".",".",".",".",".",".",".",".",".",".",".",".",".",".",".",".",2,".",2,".",2],[".",0,".",0,".",0,".",0,".",0,".",0,".",3,".",3,".",0,".",0,".",0,".",0,".",0,".",".",3,".",3,"."],[0,".",0,".",0,".",0,".",0,".",0,".",4,".",4,".",0,".",0,".",0,".",0,".",0,".",0,".",".",".",".","."],[".",".",".",".",".",".",".",".",".",".",".",".",".",".",".",".",".",".",".",".",".",".",".",".",".",".",".",".",".",".",".","."],[".",".",".",".",".",".",".",".",".",".",".",".",".",".",".",".",".",".",".",".",".",".",".",".",".",".",".",".",".",".",".","."],[".",".",".",".",".",".",".",".",".",".",".",".",".",".",".",".",".",".",".",".",".",".",".",".",".",".",".",".",".",".",".","."]],[[".",0,".",0,".",0,".",0,".",0,".",0,".",2,".",2,".",".",".",".",".",".",".",".",".",".",".",".",".",".",".","."],[1,".",1,".",1,".",1,".",1,".",1,".",3,".",3,".",".",0,".",0,".",0,".",0,".",0,".",0,".",".",".","."],[".",".",".",".",".",".",".",".",".",".",".",".",".",".",".",".",0,".",0,".",0,".",0,".",0,".",0,".",".",3,".",3],[".",".",".",".",".",".",".",".",".",".",".",".",".",".",".",".",".",".",".",".",".",".",".",".",".",".",".",".",4,".",4,"."],[".",".",".",".",".",".",".",".",".",".",".",".",".",".",".",".",".",".",".",".",".",".",".",".",".",".",".",".",".",".",".","."],[".",".",".",".",".",".",".",".",".",".",".",".",".",".",".",".",".",".",".",".",".",".",".",".",".",".",".",".",".",".",".","."]],[[".",".",".",".",".",".",".",".",".",".",".",".",".",".",".",".",".",".",".",".",".",".",".",".",".",".",".",".",".",".",".","."],[".",".",".",".",".",".",".",".",".",".",".",".",".",".",".",".",".",".",".",".",".",".",".",".",".",".",".",".",".",".",".","."],[".",".",".",".",".",".",".",".",".",0,".",0,".",0,".",0,".",".",".",".",".",".",".",".",".",0,".",0,".",0,".","."],[".",2,".",2,".",2,".",2,2,".",2,".",2,".",2,".",".",4,".",4,".",4,".",4,2,".",2,".",2,".",".",4],[3,".",3,".",3,".",3,".",".",".",".",".",".",".",".",".",5,".",5,".",5,".",5,".",".",".",".",".",".",".",5,"."],[".",".",".",".",".",".",".",".",".",".",".",".",".",".",".",".",".",".",".",".",".",".",".",".",".",".",".",".",".",".",".","."]]],"numberofstrings":6,"notes":["E","B","G","D","A","E","B"],"capo":"2","stringnotes":["E4","B3","G3","D3","A2","E2"],"comments":["Stave 1:","Stave 2:","Stave 3:","Stave 4:"],"timing":[[null,null,null,null,null,null,null,null,null,null,null,null,null,null,null,null,null,null,null,null,null,null,null,null,null,null,null,null,null,null,null,null,null],[null,null,null,null,null,null,null,null,null,null,null,null,null,null,null,null,null,null,null,null,null,null,null,null,null,null,null,null,null,null,null,null,null,null,null,null,null,null,null,null,null,null,null,null,null,null,null,null,null,null,null],[null,null,null,null,null,null,null,null,null,null,null,null,null,null,null,null,null,null,null,null,null,null,null,null,null,null,null,null,null,null,null,null],[null,null,null,null,null,null,null,null,null,null,null,null,null,null,null,null,null,null,null,null,null,null,null,null,null,null,null,null,null,null,null,null]],"timingvisible":false,"tabcounter":32,"stave":3,"totalstaves":4,"instrument":"6guitar","selectedtuning":"6_standard","version":"13"}

Member for

1 week 4 days
Submitted by krzkrvr_ on Sat, 2020-05-23 06:59