Demons- Imagine Dragons

Chords

01234567891011121314151617181920212223
E
B
G
D
A
E
B
0 1 2 3 4 5 6 7 8 9 10 11 12 13 14 15 16 17 18 19 20 21 22 23
(/) Slide Up  (\) Slide Down  (h) Hammer On  (p) Pull Off  (b) Bend (r) Release (v) Vibrato

Stave 1:

E|-------------------------------------------|-------------------------------------------|-
B|-------------------------------------------|-------------------------------------------|-
G|-----3-0-------3-0-------3/5-0-------1-1-1-|-----3-0-------3-0-------3/5-0-------1-1-1-|-
D|-1-1-----3-1-1-----3-1-1-------3-1-1-------|-1-1-----3-1-1-----3-1-1-------3-1-1-------|-
A|-------------------------------------------|-------------------------------------------|-
E|-------------------------------------------|-------------------------------------------|-

Stave 2:

E|----------------------------|----------------------------|----------------------------|-
B|----------------------4-3-1-|----------------------------|-4-4-4-4-4-3----3-3-3-3-3-1-|-
G|-3-3-3-3-0-3----3-3-3-------|-0-0-0-0-0-1----1-1-1-1-0-0-|----------------------------|-
D|----------------------------|----------------------------|----------------------------|-
A|----------------------------|----------------------------|----------------------------|-
E|----------------------------|----------------------------|----------------------------|-

Stave 3:

E|----------------------------|-----6---------6-----------------------------------|-
B|----------------------------|-8-8-------8-8-------8-8-8-8-8----9----9-9-9-9-8-8-|-
G|-0-0-0-0-0-1----1-1-1-1-0-0-|-------8-7-------7-5-------------------------------|-
D|----------------------------|---------------------------------------------------|-
A|----------------------------|---------------------------------------------------|-
E|----------------------------|---------------------------------------------------|-

Stave 4:

E|-----6---------6-----------------------------------|------------1------------------|-
B|-8-8-------8-8-------8-8-8-8-8----9----9-9-9-9-8-8-|-4-4-4-4------3----3-3-3-3-4-1-|-
G|-------8-7-------7-5-------------------------------|-------------------------------|-
D|---------------------------------------------------|-------------------------------|-
A|---------------------------------------------------|-------------------------------|-
E|---------------------------------------------------|-------------------------------|-

Stave 5:

E|-------------------------|------------1------------------|-3-3-3-3----1---4-4-4-4-3-3-|-
B|-1-1-1-1-----1-1-1-1-3-4-|-4-4-4-4------3----3-3-3-3-4-1-|--------------4-------------|-
G|---------0-1-------------|-------------------------------|----------------------------|-
D|-------------------------|-------------------------------|----------------------------|-
A|-------------------------|-------------------------------|----------------------------|-
E|-------------------------|-------------------------------|----------------------------|-

Stave 6:

E|-----6---------6-----------------------------------|-
B|-8-8-------8-8-------8-8-8-8-8----9----9-9-9-9-8-8-|-
G|-------8-7-------7-5-------------------------------|-
D|---------------------------------------------------|-
A|---------------------------------------------------|-
E|---------------------------------------------------|-

Stave 7:

E|-----6---------6-----------------------------------|-
B|-8-8-------8-8-------8-8-8-8-8----9----9-9-9-9-8-8-|-
G|-------8-7-------7-5-------------------------------|-
D|---------------------------------------------------|-
A|---------------------------------------------------|-
E|---------------------------------------------------|-

							http://www.guitartabcreator.com
Instruments
{"strings":[[[".",".",".",".",".",".",".",".",".",".",".",".",".",".",".",".",".",".",".",".",".",".","|",".",".",".",".",".",".",".",".",".",".",".",".",".",".",".",".",".",".",".",".",".",".","|"],[".",".",".",".",".",".",".",".",".",".",".",".",".",".",".",".",".",".",".",".",".",".","|",".",".",".",".",".",".",".",".",".",".",".",".",".",".",".",".",".",".",".",".",".",".","|"],[".",".",3,0,".",".",".",3,0,".",".",".",3,"/",5,0,".",".",".",1,1,1,"|",".",".",3,0,".",".",".",3,0,".",".",".",3,"/",5,0,".",".",".",1,1,1,"|"],[1,1,".",".",3,1,1,".",".",3,1,1,".",".",".",".",3,1,1,".",".",".","|",1,1,".",".",3,1,1,".",".",3,1,1,".",".",".",".",3,1,1,".",".",".","|"],[".",".",".",".",".",".",".",".",".",".",".",".",".",".",".",".",".",".",".",".",".",".","|",".",".",".",".",".",".",".",".",".",".",".",".",".",".",".",".",".",".",".",".",".",".","|"],[".",".",".",".",".",".",".",".",".",".",".",".",".",".",".",".",".",".",".",".",".",".","|",".",".",".",".",".",".",".",".",".",".",".",".",".",".",".",".",".",".",".",".",".",".","|"]],[[".",".",".",".",".",".","_",".",".",".",".",".",".","|",".",".",".",".",".",".","_",".",".",".",".",".",".","|",".",".",".",".",".",".","_",".",".",".",".",".",".","|"],[".",".",".",".",".",".","_",".",".",".",4,3,1,"|",".",".",".",".",".",".","_",".",".",".",".",".",".","|",4,4,4,4,4,3,"_",3,3,3,3,3,1,"|"],[3,3,3,3,0,3,"_",3,3,3,".",".",".","|",0,0,0,0,0,1,"_",1,1,1,1,0,0,"|",".",".",".",".",".",".","_",".",".",".",".",".",".","|"],[".",".",".",".",".",".","_",".",".",".",".",".",".","|",".",".",".",".",".",".","_",".",".",".",".",".",".","|",".",".",".",".",".",".","_",".",".",".",".",".",".","|"],[".",".",".",".",".",".","_",".",".",".",".",".",".","|",".",".",".",".",".",".","_",".",".",".",".",".",".","|",".",".",".",".",".",".","_",".",".",".",".",".",".","|"],[".",".",".",".",".",".","_",".",".",".",".",".",".","|",".",".",".",".",".",".","_",".",".",".",".",".",".","|",".",".",".",".",".",".","_",".",".",".",".",".",".","|"]],[[".",".",".",".",".",".","_",".",".",".",".",".",".","|",".",".",6,".",".",".",".",6,".",".",".",".",".",".",".","_",".","_",".",".",".",".",".",".","|"],[".",".",".",".",".",".","_",".",".",".",".",".",".","|",8,8,".",".",".",8,8,".",".",".",8,8,8,8,8,"_",9,"_",9,9,9,9,8,8,"|"],[0,0,0,0,0,1,"_",1,1,1,1,0,0,"|",".",".",".",8,7,".",".",".",7,5,".",".",".",".",".","_",".","_",".",".",".",".",".",".","|"],[".",".",".",".",".",".","_",".",".",".",".",".",".","|",".",".",".",".",".",".",".",".",".",".",".",".",".",".",".","_",".","_",".",".",".",".",".",".","|"],[".",".",".",".",".",".","_",".",".",".",".",".",".","|",".",".",".",".",".",".",".",".",".",".",".",".",".",".",".","_",".","_",".",".",".",".",".",".","|"],[".",".",".",".",".",".","_",".",".",".",".",".",".","|",".",".",".",".",".",".",".",".",".",".",".",".",".",".",".","_",".","_",".",".",".",".",".",".","|"]],[[".",".",6,".",".",".",".",6,".",".",".",".",".",".",".","_",".","_",".",".",".",".",".",".","|",".",".",".",".","_",1,".","_",".",".",".",".",".",".","|"],[8,8,".",".",".",8,8,".",".",".",8,8,8,8,8,"_",9,"_",9,9,9,9,8,8,"|",4,4,4,4,"_",".",3,"_",3,3,3,3,4,1,"|"],[".",".",".",8,7,".",".",".",7,5,".",".",".",".",".","_",".","_",".",".",".",".",".",".","|",".",".",".",".","_",".",".","_",".",".",".",".",".",".","|"],[".",".",".",".",".",".",".",".",".",".",".",".",".",".",".","_",".","_",".",".",".",".",".",".","|",".",".",".",".","_",".",".","_",".",".",".",".",".",".","|"],[".",".",".",".",".",".",".",".",".",".",".",".",".",".",".","_",".","_",".",".",".",".",".",".","|",".",".",".",".","_",".",".","_",".",".",".",".",".",".","|"],[".",".",".",".",".",".",".",".",".",".",".",".",".",".",".","_",".","_",".",".",".",".",".",".","|",".",".",".",".","_",".",".","_",".",".",".",".",".",".","|"]],[[".",".",".",".",".",".",".",".",".",".",".",".","|",".",".",".",".","_",1,".","_",".",".",".",".",".",".","|",3,3,3,3,"_",1,".",4,4,4,4,3,3,"|"],[1,1,1,1,".",".",1,1,1,1,3,4,"|",4,4,4,4,"_",".",3,"_",3,3,3,3,4,1,"|",".",".",".",".","_",".",4,".",".",".",".",".",".","|"],[".",".",".",".",0,1,".",".",".",".",".",".","|",".",".",".",".","_",".",".","_",".",".",".",".",".",".","|",".",".",".",".","_",".",".",".",".",".",".",".",".","|"],[".",".",".",".",".",".",".",".",".",".",".",".","|",".",".",".",".","_",".",".","_",".",".",".",".",".",".","|",".",".",".",".","_",".",".",".",".",".",".",".",".","|"],[".",".",".",".",".",".",".",".",".",".",".",".","|",".",".",".",".","_",".",".","_",".",".",".",".",".",".","|",".",".",".",".","_",".",".",".",".",".",".",".",".","|"],[".",".",".",".",".",".",".",".",".",".",".",".","|",".",".",".",".","_",".",".","_",".",".",".",".",".",".","|",".",".",".",".","_",".",".",".",".",".",".",".",".","|"]],[[".",".",6,".",".",".",".",6,".",".",".",".",".",".",".","_",".","_",".",".",".",".",".",".","|"],[8,8,".",".",".",8,8,".",".",".",8,8,8,8,8,"_",9,"_",9,9,9,9,8,8,"|"],[".",".",".",8,7,".",".",".",7,5,".",".",".",".",".","_",".","_",".",".",".",".",".",".","|"],[".",".",".",".",".",".",".",".",".",".",".",".",".",".",".","_",".","_",".",".",".",".",".",".","|"],[".",".",".",".",".",".",".",".",".",".",".",".",".",".",".","_",".","_",".",".",".",".",".",".","|"],[".",".",".",".",".",".",".",".",".",".",".",".",".",".",".","_",".","_",".",".",".",".",".",".","|"]],[[".",".",6,".",".",".",".",6,".",".",".",".",".",".",".","_",".","_",".",".",".",".",".",".","|"],[8,8,".",".",".",8,8,".",".",".",8,8,8,8,8,"_",9,"_",9,9,9,9,8,8,"|"],[".",".",".",8,7,".",".",".",7,5,".",".",".",".",".","_",".","_",".",".",".",".",".",".","|"],[".",".",".",".",".",".",".",".",".",".",".",".",".",".",".","_",".","_",".",".",".",".",".",".","|"],[".",".",".",".",".",".",".",".",".",".",".",".",".",".",".","_",".","_",".",".",".",".",".",".","|"],[".",".",".",".",".",".",".",".",".",".",".",".",".",".",".","_",".","_",".",".",".",".",".",".","|"]]],"numberofstrings":6,"notes":["E","B","G","D","A","E","B"],"capo":0,"stringnotes":["E4","B3","G3","D3","A2","E2"],"comments":["Stave 1:","Stave 2:","Stave 3:","Stave 4:","Stave 5:","Stave 6:","Stave 7:"],"timing":[["W","W","W","W","W","W","W","W","W","W","W","W","W","W","W","W","W","W","W","W","W","W","W","W","W","W","W","W","W","W","W","W","W","W","W","W",null,"W","W","W","W","W","W","W","W"],["W","W","W","W","W","W","W","W","W","W","W","W","W",null,"W","W","W","W","W","W","W","W","W","W","W","W","W",null,"W","W","W","W","W","W",null,"W","W","W","W","W","W"],["W","W","W","W","W","W",null,"W","W","W","W","W","W",null,"W","W","W","W","W","W","W","W","W","W","W","W","W","W","W",null,"W",null,"W","W","W","W","W","W"],["W","W","W","W","W","W","W","W","W","W","W","W","W","W","W",null,"W",null,"W","W","W","W","W","W",null,"W","W","W","W","W","W","W","W","W","W","W","W","W","W"],["W","W","W","W","W","W","W","W","W","W","W","W",null,"W","W","W","W",null,"W","W",null,"W","W","W","W","W","W",null,"W","W","W","W",null,"W","W","W","W","W","W","W","W"],["W","W","W","W","W","W","W","W","W","W","W","W","W","W","W",null,"W",null,"W","W","W","W","W","W"],["W","W","W","W","W","W","W","W","W","W","W","W","W","W","W",null,"W",null,"W","W","W","W","W","W"]],"timingvisible":false,"tabcounter":25,"stave":6,"totalstaves":7,"instrument":"6guitar","selectedtuning":"6_standard","version":"13"}

Member for

1 month 1 week
Submitted by Krypton on Sun, 2020-10-18 13:36