Sound will begin in 5 seconds

smooth

01234567891011121314151617181920212223
E
B
G
D
A
E
B
0 1 2 3 4 5 6 7 8 9 10 11 12 13 14 15 16 17 18 19 20 21 22 23
Song Science #1: How Pros Use 6 Chords to Write Hit Songs
(/) Slide Up  (\) Slide Down  (h) Hammer On  (p) Pull Off  (b) Bend (r) Release (v) Vibrato

Stave 1:

E|----------------------------------------------------------------------------------------
B|----------------------12-12b13r12----12-13---------------------10-----------------------
G|-------12----14-13-14-------------14-------14-14-7b9r7b9r7b9r7----9p7-9p7/6-------------
D|-12h14----14----------------------------------------------------------------7-6-7-7\9-7-
A|----------------------------------------------------------------------------------------
E|----------------------------------------------------------------------------------------

Stave 2:

E|----------------------------------------------------
B|-------------------12h13p12-15-13-12-------12-------
G|-------------------------------------14-13----13-14-
D|-------------12h14----------------------------------
A|-------12h15----------------------------------------
E|-12-15----------------------------------------------

Stave 3:

E|----------------------
B|-15b17-15b17-13h15\17-
G|----------------------
D|----------------------
A|----------------------
E|----------------------

Stave 4:

E|-------12-15p12----12----------12-------
B|-15b17----------15----15-13-15----15b17/
G|----------------------------------------
D|----------------------------------------
A|----------------------------------------
E|----------------------------------------

Stave 5:

E|----------------------------------------12-------12-15p12----12----------------------------
B|----------------------12-13p12----15b17----15b17----------15----15-13-15p13-15p13-15p13----
G|-------------------14----------14-------------------------------------------------------14-
D|-12-12-12-12-14-15-------------------------------------------------------------------------
A|-------------------------------------------------------------------------------------------
E|-------------------------------------------------------------------------------------------

Stave 6:

E|----------------------------------------------------------
B|-------------12-12b13r12----12-13-------15b17-15p13-------
G|-12h14-13-14-------------14-------14-14-------------14-14-
D|----------------------------------------------------------
A|----------------------------------------------------------
E|----------------------------------------------------------

Stave 7:

E|----------------------------------------------
B|-------------12-13-12-15-13-12----------------
G|-------12-14-------------------14-13-14-13-14/
D|-12h14----------------------------------------
A|----------------------------------------------
E|----------------------------------------------

Stave 8:

E|----------------------------------------12-------12-15p12----12----------------------------
B|-------------12-13-15-13-15-13h15-15b17----15b17----------15----15-13-15p13-15p13-15p13----
G|----------14----------------------------------------------------------------------------14-
D|-12-14-15----------------------------------------------------------------------------------
A|-------------------------------------------------------------------------------------------
E|-------------------------------------------------------------------------------------------

Stave 9:

E|------------------------12h13p12---------------------------------
B|----12----12-13-13\15/0----------15-13-15-13-15-13-13\15-15-13/0-
G|-14----14--------------------------------------------------------
D|-----------------------------------------------------------------
A|-----------------------------------------------------------------
E|-----------------------------------------------------------------

http://www.guitartabcreator.com
Guitar Tab Creator is intended to store guitar tab created through the tool. It currently does not support in-line text editing. Any text you place in here will be lost. If you need to comment on your tab, please use the "Tab Notes" section located below.