Sound will begin in 5 seconds

fdssdfa

Chords
01234567891011121314151617181920212223
E
B
G
D
A
E
B
0 1 2 3 4 5 6 7 8 9 10 11 12 13 14 15 16 17 18 19 20 21 22 23
Song Science #1: How Pros Use 6 Chords to Write Hit Songs
(/) Slide Up  (\) Slide Down  (h) Hammer On  (p) Pull Off  (b) Bend (r) Release (v) Vibrato

Stave 1:

E|------------7--------------------------------------------------
B|--10p7--10-----10/12--10p7-------------------------------------
G|----------------------------9--7--7h9--------------------------
D|---------------------------------------7/9----------2--2/5--4--
A|-------------------------------------------------2-------------
E|--------------------------------------------0h3----------------

Stave 2:

E|------------------------------------------------------
B|-----1-------------------3-----3--3--3--3--3--3-------
G|-----2--2b3r2p0--2--2/4--------2--2--2--2--2--2--2/5--
D|--3--3----------------------2--0--0--0--0--0--0-------
A|--3--3----------------------2-------------------------
E|--1-------------------------0-------------------------

Stave 3:

E|----------------------------7--7--
B|------------------8--10b12--------
G|--4--5--5/7--7/9------------------
D|----------------------------------
A|----------------------------------
E|----------------------------------

http://www.guitartabcreator.com
Guitar Tab Creator is intended to store guitar tab created through the tool. It currently does not support in-line text editing. Any text you place in here will be lost. If you need to comment on your tab, please use the "Tab Notes" section located below.