Sound will begin in 5 seconds

Juego de tronos

01234567891011121314151617181920212223
E
B
G
D
A
E
B
0 1 2 3 4 5 6 7 8 9 10 11 12 13 14 15 16 17 18 19 20 21 22 23
(/) Slide Up  (\) Slide Down  (h) Hammer On  (p) Pull Off  (b) Bend (r) Release (v) Vibrato

Stave 1:

E|----------------------------------------------------------
B|--8-------------8-------------8-------------8-------------
G|---------8--10---------8--10---------8--10---------8--10--
D|-----10------------10------------10------------10---------
A|----------------------------------------------------------
E|----------------------------------------------------------

Stave 2:

E|----------------------------------------------------------
B|--8-------------8-------------8-------------8-------------
G|---------9--10---------9--10---------9--10---------9--10--
D|-----10------------10------------10------------10---------
A|----------------------------------------------------------
E|----------------------------------------------------------

Stave 3:

E|--------------------------------------------------------------------
B|--------------------------------------------------------------------
G|--------------------------------------------------------------------
D|--------------------------------------------------------------------
A|--10---------8--10---------8\5-----------8-----6--5--8-----6--5-----
E|------8--11---------8--11-------------------6-----------6--------8--

Stave 4:

E|---------------------------------------------------------------------
B|--8-------------8----------------------------------------------------
G|---------8--10---------8--10--7--------10-----8--7--10-----8--7--10--
D|-----10------------10----------------------8------------8------------
A|---------------------------------------------------------------------
E|---------------------------------------------------------------------

Stave 5:

E|--------------------------------------------------------------
B|--8-------------8---------------------------------------------
G|---------8--10---------8--10--7--------10-----7--8--7---------
D|-----10------------10----------------------8-----------8--10--
A|--------------------------------------------------------------
E|--------------------------------------------------------------

Stave 6:

E|--8-----4--6--8-----6--8\6-----3--4--6-----4--6--
B|-----4-----------4----------4-----------4--------
G|-------------------------------------------------
D|-------------------------------------------------
A|-------------------------------------------------
E|-------------------------------------------------

Stave 7:

E|--4-----1--3--4-----3--4--3--------1--3--------1--
B|-----1-----------1-----------1--4--------1--4-----
G|--------------------------------------------------
D|--------------------------------------------------
A|--------------------------------------------------
E|--------------------------------------------------

Stave 8:

E|----------------------------------
B|--4-----1--3--4-----1--3--4--6/8--
G|-----1-----------1----------------
D|----------------------------------
A|----------------------------------
E|----------------------------------

Stave 9:

E|--------------------------------------------------
B|--------------------------------------------------
G|--5-----------5-----------5-----------5-----------
D|-----5--6--8-----5--6--8-----5--6--8-----5--6--8--
A|--------------------------------------------------
E|--------------------------------------------------

http://www.guitartabcreator.com
Guitar Tab Creator is intended to store guitar tab created through the tool. It currently does not support in-line text editing. Any text you place in here will be lost. If you need to comment on your tab, please use the "Tab Notes" section located below.