Sound will begin in 5 seconds

Victory in Jesus - Electric Guitar in E

Chords
01234567891011121314151617181920212223
E
B
G
D
A
E
B
0 1 2 3 4 5 6 7 8 9 10 11 12 13 14 15 16 17 18 19 20 21 22 23
(/) Slide Up  (\) Slide Down  (h) Hammer On  (p) Pull Off  (b) Bend (r) Release (v) Vibrato

Stave 1:

E|--------------------------------------------------
B|--------------------------------------------------
G|--4--4--4--4--4--4--4--4--4--4--4--4--0--1--0-----
D|--2--2--2--2--2--2--2--2--2--2--2--2-----------1--
A|--------------------------------------------------
E|--------------------------------------------------

Stave 2:

E|--4-------2-----0--0--4--2--2--
B|--5--2/3-----2-----0--5--5--4--
G|--4----------------1--6--4--4--
D|-------------------------------
A|-------------------------------
E|-------------------------------

Stave 3:

E|--------------------------------------------------------------------------
B|--------------------------------------------------------------------------
G|-----------------------------------------4-----4--7--4-----4--------------
D|-----------5--------------7--5--------------7-----------7-----7--5--------
A|--7--5--7-----7--7--5--7--------7--5--7-----------------------------7--5--
E|--------------------------------------------------------------------------

Stave 4:

E|------------------------------------------7------7--10--7------7---------------
B|-----------8--------------10--8--------------10------------10-----10--8--------
G|--9--7--9-----9--9--7--9---------9--7--9---------------------------------9--7--
D|-------------------------------------------------------------------------------
A|-------------------------------------------------------------------------------
E|-------------------------------------------------------------------------------

http://www.guitartabcreator.com
Guitar Tab Creator is intended to store guitar tab created through the tool. It currently does not support in-line text editing. Any text you place in here will be lost. If you need to comment on your tab, please use the "Tab Notes" section located below.