Sound will begin in 5 seconds

Psalm 34 Taste & See Electric Tab

Chords
01234567891011121314151617181920212223
E
B
G
D
A
E
B
0 1 2 3 4 5 6 7 8 9 10 11 12 13 14 15 16 17 18 19 20 21 22 23
(/) Slide Up  (\) Slide Down  (h) Hammer On  (p) Pull Off  (b) Bend (r) Release (v) Vibrato

Stave 1:

E|---------------------------------------------------------------------------
B|---------------------------------------------------------------------------
G|--4--2--------------4--------2------------------------4--------------------
D|--------4--2--0-----4-----5--0-------0h2--0-----0-----4-----5--2--2--2--2--
A|-----------------2--2-----5-----0h2----------2-----2--2-----5--0--0--0--0--
E|-----------------------3--3------------------------------3--3--------------

Stave 2:

E|--7--------9--7-----5--------5-----|--7--------9--7-----5--------5-----|--
B|-----7-----------------7--------5--|--7--7-----8--------7--7-----5--5--|--
G|-----------------------------------|--7--------7--------7--------6-----|--
D|-----------------------------------|-----------------------------------|--
A|-----------------------------------|-----------------------------------|--
E|-----------------------------------|-----------------------------------|--

							http://www.guitartabcreator.com
Note:
Guitar Tab Creator is intended to store guitar tab created through the tool. It currently does not support in-line text editing. Any text you place in here will be lost. If you need to comment on your tab, please use the "Tab Notes" section located below.