Promises

Chords

01234567891011121314151617181920212223
E
B
G
D
A
E
B
0 1 2 3 4 5 6 7 8 9 10 11 12 13 14 15 16 17 18 19 20 21 22 23
(/) Slide Up  (\) Slide Down  (h) Hammer On  (p) Pull Off  (b) Bend (r) Release (v) Vibrato

Stave 1:

E|---------------------------------10------10------8---------------------------------10------10--13--8--10--8--6--
B|--10--11--8--10--11------10--11------11------11-----10--11--8--10--11------10--11------11-----------------------
G|---------------------10------------------------------------------------10---------------------------------------
D|----------------------------------------------------------------------------------------------------------------
A|----------------------------------------------------------------------------------------------------------------
E|----------------------------------------------------------------------------------------------------------------

Stave 2:

E|-------------|------------------|------------------|----------------------|--
B|--10--11--8--|--11------11------|--10------10------|--11--10--------------|--
G|-------------|------10------10--|------10------10--|----------12--10------|--
D|-------------|------------------|------------------|------------------12--|--
A|-------------|------------------|------------------|----------------------|--
E|-------------|------------------|------------------|----------------------|--

Stave 3:

E|--8---10------8---10------8---10--10------10------|--6--
B|--10--11--11--10--11--11--10--11--11------11------|--6--
G|----------10----------12--------------10------10--|-----
D|--------------------------------------------------|-----
A|--------------------------------------------------|-----
E|--------------------------------------------------|-----

							http://www.guitartabcreator.com
Instruments
{"strings":[[[".",".",".",".",".",".",".",".",10,".",10,".",8,".",".",".",".",".",".",".",".",10,".",10,13,8,10,8,6],[10,11,8,10,11,".",10,11,".",11,".",11,".",10,11,8,10,11,".",10,11,".",11,".",".",".",".",".","."],[".",".",".",".",".",10,".",".",".",".",".",".",".",".",".",".",".",".",10,".",".",".",".",".",".",".",".",".","."],[".",".",".",".",".",".",".",".",".",".",".",".",".",".",".",".",".",".",".",".",".",".",".",".",".",".",".",".","."],[".",".",".",".",".",".",".",".",".",".",".",".",".",".",".",".",".",".",".",".",".",".",".",".",".",".",".",".","."],[".",".",".",".",".",".",".",".",".",".",".",".",".",".",".",".",".",".",".",".",".",".",".",".",".",".",".",".","."]],[[".",".",".","|",".",".",".",".","|",".",".",".",".","|",".",".",".",".",".","|"],[10,11,8,"|",11,".",11,".","|",10,".",10,".","|",11,10,".",".",".","|"],[".",".",".","|",".",10,".",10,"|",".",10,".",10,"|",".",".",12,10,".","|"],[".",".",".","|",".",".",".",".","|",".",".",".",".","|",".",".",".",".",12,"|"],[".",".",".","|",".",".",".",".","|",".",".",".",".","|",".",".",".",".",".","|"],[".",".",".","|",".",".",".",".","|",".",".",".",".","|",".",".",".",".",".","|"]],[[8,10,".",8,10,".",8,10,10,".",10,".","|",6],[10,11,11,10,11,11,10,11,11,".",11,".","|",6],[".",".",10,".",".",12,".",".",".",10,".",10,"|","."],[".",".",".",".",".",".",".",".",".",".",".",".","|","."],[".",".",".",".",".",".",".",".",".",".",".",".","|","."],[".",".",".",".",".",".",".",".",".",".",".",".","|","."]]],"numberofstrings":6,"notes":["E","B","G","D","A","E","B"],"capo":0,"stringnotes":["E4","B3","G3","D3","A2","E2"],"comments":["Stave 1:","Stave 2:","Stave 3:"],"timing":[["W","W","W","W","W","W","W","W","W","W","W","W","W","W","W","W","W","W","W","W","W","W","W","W","W","W","W","W","W"],["W","W","W",null,"W","W","W","W",null,"W","W","W","W",null,"W","W","W","W","W"],["W","W","W","W","W","W","W","W","W","W","W","W","W","W"]],"timingvisible":false,"tabcounter":13,"stave":2,"totalstaves":3,"instrument":"6guitar","selectedtuning":"6_standard","version":"13"}

Member for

2 years 4 months
Submitted by kristiereddoch on Tue, 2020-07-07 10:26