Sound will begin in 5 seconds

Lamb of God Electric Guitar 1 G Tab

01234567891011121314151617181920212223
E
B
G
D
A
E
B
0 1 2 3 4 5 6 7 8 9 10 11 12 13 14 15 16 17 18 19 20 21 22 23
(/) Slide Up  (\) Slide Down  (h) Hammer On  (p) Pull Off  (b) Bend (r) Release (v) Vibrato

Stave 1:

E|--7--10--7------------------7--10--7------------------
B|------------10--12--------------------10--12----------
G|--------------------12--14--------------------12--11--
D|------------------------------------------------------
A|------------------------------------------------------
E|------------------------------------------------------

Stave 2:

E|--------3--------3--------------7--------7--------------5--------5--------------5--------5--------
B|-----5--------5--------5-----8--------8--------8-----7--------7--------7-----7--------7--------7--
G|--5--------5--------5-----9--------9--------9-----7--------7--------7-----7--------7--------7-----
D|--------------------------------------------------------------------------------------------------
A|--------------------------------------------------------------------------------------------------
E|--------------------------------------------------------------------------------------------------

Stave 3:

E|--------------------------------------------3----------------3--------
B|----------3----------------3--------0h1--------1--0--2/4--------4--2--
G|-------0-----0--2-------0-----0--2-------0----------------5-----------
D|--4/5--------------4/5------------------------------------------------
A|----------------------------------------------------------------------
E|----------------------------------------------------------------------

Stave 4:

E|-----3-----2-----3-----2--
B|--3-----3-----3-----3-----
G|--------------------------
D|--------------------------
A|--------------------------
E|--------------------------

Stave 5:

E|--3--2-----3--2-----3--2--------3--2--------3--2--------3--2--------
B|--------3--------3--------3-----------3-----------3-----------3/10--
G|-----------------------------2-----------2-----------2--------------
D|--------------------------------------------------------------------
A|--------------------------------------------------------------------
E|--------------------------------------------------------------------

Stave 6:

E|--
B|--
G|--
D|--
A|--
E|--

							http://www.guitartabcreator.com
Note:
Guitar Tab Creator is intended to store guitar tab created through the tool. It currently does not support in-line text editing. Any text you place in here will be lost. If you need to comment on your tab, please use the "Tab Notes" section located below.