Sound will begin in 5 seconds

Jesus There's No One Like You (Original Intro/Bridge)

01234567891011121314151617181920212223
E
B
G
D
A
E
B
0 1 2 3 4 5 6 7 8 9 10 11 12 13 14 15 16 17 18 19 20 21 22 23
(/) Slide Up  (\) Slide Down  (h) Hammer On  (p) Pull Off  (b) Bend (r) Release (v) Vibrato

Stave 1:

E|------11--12------12----------11--12------12----------11--12------12----------11--12------14------|--
B|--12----------12------12--12----------12------12--12----------12------12--12----------12------12--|--
G|--------------------------------------------------------------------------------------------------|--
D|--------------------------------------------------------------------------------------------------|--
A|--------------------------------------------------------------------------------------------------|--
E|--------------------------------------------------------------------------------------------------|--

Stave 2:

E|-----------------------------------------------|--
B|-----------------------------------------------|--
G|--------9-----------------------------------9--|--
D|-----9-----------7--------9--------7-----9-----|--
A|--7-----------7--------9--------7-----7--------|--
E|-----------5--------7--------5-----------------|--

Stave 3:

E|-----------------7--------------------------7--------------|--
B|-----------7--9-----9--7--------------7--9-----9--7--------|--
G|-----9--6-----------------9-----9--6-----------------9--9--|--
D|--7--------------------------7-----------------------------|--
A|-----------------------------------------------------------|--
E|-----------------------------------------------------------|--

Stave 4:

E|------------------------------------|--
B|------------------------------------|--
G|--9-----8--9--------9-----8--9--11--|--
D|-----9--------9--7-----9------------|--
A|------------------------------------|--
E|------------------------------------|--

							http://www.guitartabcreator.com
Note:
Guitar Tab Creator is intended to store guitar tab created through the tool. It currently does not support in-line text editing. Any text you place in here will be lost. If you need to comment on your tab, please use the "Tab Notes" section located below.