Sound will begin in 5 seconds

How Deep the Father's Love - The Dispatch Version (Drop D Tuning)

Chords
01234567891011121314151617181920212223
E
B
G
D
A
E
B
0 1 2 3 4 5 6 7 8 9 10 11 12 13 14 15 16 17 18 19 20 21 22 23
(/) Slide Up  (\) Slide Down  (h) Hammer On  (p) Pull Off  (b) Bend (r) Release (v) Vibrato

Stave 1:

E|-----------|-----------|--------------------|--
B|-----------|-----------|--------------------|--
G|-----2--4--|-----2--6--|-----2--4--2--7--6--|--
D|--4-----0--|--4-----0--|--4-----0-----0--0--|--
A|-----------|-----------|--------------------|--
D|--0--4--5--|--0--4--7--|--0--4--5--4--9--7--|--

Stave 2:

E|--------------|--------------|--
B|--------------|--------------|--
G|--4--6--4--6--|--7--6--4--6--|--
D|--0--0--0--0--|--0--0--0--0--|--
A|--------------|--------------|--
D|--5--7--5--7--|--9--7--5--7--|--

							http://www.guitartabcreator.com
Note:
Guitar Tab Creator is intended to store guitar tab created through the tool. It currently does not support in-line text editing. Any text you place in here will be lost. If you need to comment on your tab, please use the "Tab Notes" section located below.