Sound will begin in 5 seconds

Blessed Assurance (O What A Saviour) in C (G shapes, Capo 5)

01234567891011121314151617181920212223
E
B
G
D
A
E
B
0 1 2 3 4 5 6 7 8 9 10 11 12 13 14 15 16 17 18 19 20 21 22 23
(/) Slide Up  (\) Slide Down  (h) Hammer On  (p) Pull Off  (b) Bend (r) Release (v) Vibrato

Stave 1:

E|------------------------------------------------------------------
B|--------------13--12--------------13--12--------------13--12--13--
G|--14--12--14----------12------12----------14--12--14--------------
D|--------------------------14--------------------------------------
A|------------------------------------------------------------------
E|------------------------------------------------------------------

Stave 2:

E|--------------12--10--------------12--10--------------12--10--15--
B|--13--12--13----------13--12--13----------13--12--13--------------
G|------------------------------------------------------------------
D|------------------------------------------------------------------
A|------------------------------------------------------------------
E|------------------------------------------------------------------

Stave 3:

E|--12----------------------12----------------------12--------------------------
B|------12--13------13--12------12--13------13--12------12--13------13--12--13--
G|--------------12----------------------12----------------------12--------------
D|------------------------------------------------------------------------------
A|------------------------------------------------------------------------------
E|------------------------------------------------------------------------------

							http://www.guitartabcreator.com
Note:
Guitar Tab Creator is intended to store guitar tab created through the tool. It currently does not support in-line text editing. Any text you place in here will be lost. If you need to comment on your tab, please use the "Tab Notes" section located below.