Sound will begin in 5 seconds

Bless the Lord (All That is Within Me) - E

Chords
01234567891011121314151617181920212223
E
B
G
D
A
E
B
0 1 2 3 4 5 6 7 8 9 10 11 12 13 14 15 16 17 18 19 20 21 22 23
(/) Slide Up  (\) Slide Down  (h) Hammer On  (p) Pull Off  (b) Bend (r) Release (v) Vibrato

Stave 1:

E|-----------7--7--7--9--9--9--9---
B|--9--9--9--9--9--9--9--9--9--10--
G|--9--9--9------------------------
D|---------------------------------
A|---------------------------------
E|---------------------------------

Stave 2:

E|--------------|-----------------------------------|--------7--9--7--------
B|--------------|-----------------------------------|--7--9-----------9-----
G|--------------|-----------------------------------|--------------------9--
D|--------7--7--|-----2--6-----------------7--7-----|-----------------------
A|--7--9--4--5--|--2--0--4--7--2--4--5--7--5--5--2--|-----------------------
E|--5--7--------|--0--------5--0--2--3--5--------0--|-----------------------

Stave 3:

E|--------------------------
B|--8--10--8--10--8--10-----
G|--7--9---7--9---7--9---9--
D|--5--7---5--7---5--7---9--
A|-----------------------7--
E|-----------------------0--

Stave 4:

E|--7--7--7--7-------------|-----------------------
B|--8--8--8--8-------------|-----------------------
G|--7--6--7--6--12--11--9--|--9--7--6--5-----------
D|-------------------------|--9--7--7--5--5--4--2--
A|--------------10--9---7--|--7--5--4--3--5--4--2--
E|-------------------------|--------------3--2--0--

							http://www.guitartabcreator.com
Note:
Guitar Tab Creator is intended to store guitar tab created through the tool. It currently does not support in-line text editing. Any text you place in here will be lost. If you need to comment on your tab, please use the "Tab Notes" section located below.