Sound will begin in 5 seconds

Again I Say Rejoice Electric

Chords
01234567891011121314151617181920212223
E
B
G
D
A
E
B
0 1 2 3 4 5 6 7 8 9 10 11 12 13 14 15 16 17 18 19 20 21 22 23
(/) Slide Up  (\) Slide Down  (h) Hammer On  (p) Pull Off  (b) Bend (r) Release (v) Vibrato

Stave 1:

E|----------------------------------------|--------------------------------------------
B|----------------------------------------|--------------------------------------------
G|----------------------------------------|------------------------------9-------------
D|----------------------------2--7--7-----|--9--9--9--9--9--------9--11-------------9--
A|--2--2--2--2--2-------2--4-----5--4--2--|--7--7--7--7--7--9/11------------12--12--7--
E|--0--0--0--0--0--2/4-----------------0--|--0--0--0--0--0------------------10--9---0--

Stave 2:

E|--0--0--0---0---
B|--5--7--8---10--
G|--5--7--9---11--
D|--5--7--10--12--
A|--------0---0---
E|--5--7----------

Stave 3:

E|--------------------------------------------------
B|--------------------------------------------------
G|--------------------------------------------------
D|--9--9----------9--9---------------------------9--
A|--7--7--10--12--7--7--10--10/12/10--9--9h10p9--7--
E|--0--9--8---10--0--9--8------------------------0--

Stave 4:

E|------------------------------------------------------------------------
B|------------------------------------------------------------------------
G|--------------------------------------------------------12--12--12--14--
D|--5--5--5--5--5--5--5--5--5--5--5--5--5--5--5--5--5--7------------------
A|--------------------------------------------------------10--10--10--12--
E|------------------------------------------------------------------------

							http://www.guitartabcreator.com
Note:

Stave 1: Verse/Intro Progression. First half is lower octave, second half is higher octave

Stave 2: Chord shapes for Pre-Chorus. Can arpeggiate/pick chords for different effect

Stave 3: Chorus with and without riff (strumming pattern isn't included; just the chords used)

Stave 4: Note for Bridge with octaves listed 

Guitar Tab Creator is intended to store guitar tab created through the tool. It currently does not support in-line text editing. Any text you place in here will be lost. If you need to comment on your tab, please use the "Tab Notes" section located below.