Sound will begin in 5 seconds

tab

Chords
01234567891011121314151617181920212223
E
B
G
D
A
E
B
0 1 2 3 4 5 6 7 8 9 10 11 12 13 14 15 16 17 18 19 20 21 22 23
Song Science #1: How Pros Use 6 Chords to Write Hit Songs
(/) Slide Up  (\) Slide Down  (h) Hammer On  (p) Pull Off  (b) Bend (r) Release (v) Vibrato

Stave 1:

E|--------------------------------------------------------------------------------------------------------
B|--10b12--8h10--10--8--7b8--7------------------------------8-----8h10--10p8--8h10p8p7--8--7h8p7\5--7--7--
G|------------------------------9--7-----7-----7h9--9p7--9-----9------------------------------------------
D|------------------------------------9-----9-------------------------------------------------------------
A|--------------------------------------------------------------------------------------------------------
E|--------------------------------------------------------------------------------------------------------

Stave 2:

E|-------------------------------------------------------------------------------------------------------
B|--5----------------------------------------8-----8h10--10--10--10p8--8--8h10p8p7--8--7h8p7p5--7--7--5--
G|----------7-----7h9--9--9--9p7--7--9--7h9-----9--------------------------------------------------------
D|-----7h9-----9-----------------------------------------------------------------------------------------
A|-------------------------------------------------------------------------------------------------------
E|-------------------------------------------------------------------------------------------------------

Stave 3:

E|-------------------------------------------------------------------------------------------------------
B|-------------------------------------------------------------------------------------------------------
G|--7--7--7/9--9--9/11--11--11/12/14--12--7--7--7--9--9--9--11--11--11--12--14--12--------7--7--7--9--9--
D|-------------------------------------------------------------------------------------------------------
A|----------------------------------------5--5--5--7--7--7--9---9---9---10--12--10--------5--5--5--7--7--
E|-------------------------------------------------------------------------------------------------------

Stave 4:

E|-----------------------------------------------------------------------------------------------------
B|-------------------------------------------8-----8h10-------8--8-----8--10p8--8--8-------8-----8h10--
G|--9--11--11--11--12--14--11--9--------7h9-----9--------7h9--------9-----------------7h9-----9--------
D|-----------------------------------------------------------------------------------------------------
A|--7--9---9---9---10--12--9---7-----------------------------------------------------------------------
E|-----------------------------------------------------------------------------------------------------

Stave 5:

E|--------------------------------------------------------7--7--------8------10--10--7h8--10--8--10/12--
B|-------8--8-----8--10p8--8--8-------8-----10-----10--8--------8h10-----10-----------------------------
G|--7h9--------9-----------------7h9-----9------9-------------------------------------------------------
D|------------------------------------------------------------------------------------------------------
A|------------------------------------------------------------------------------------------------------
E|------------------------------------------------------------------------------------------------------

Stave 6:

E|--12--10--12/15--15--12------15--12------15--12------15--12------15--12------15--12------15--12------
B|-------------------------12----------12----------12----------12----------12----------12----------12--
G|-----------------------------------------------------------------------------------------------------
D|-----------------------------------------------------------------------------------------------------
A|-----------------------------------------------------------------------------------------------------
E|-----------------------------------------------------------------------------------------------------

Stave 7:

E|--15--12------15--12------15--12------15--15b17--15--14--15p14p12--14--12--14p12\10--12--10h12--12--12--
B|----------12----------12----------12--------------------------------------------------------------------
G|--------------------------------------------------------------------------------------------------------
D|--------------------------------------------------------------------------------------------------------
A|--------------------------------------------------------------------------------------------------------
E|--------------------------------------------------------------------------------------------------------

Stave 8:

E|--12p10--10-----------------------------------------------------------------------------------------
B|------------------------------------------------------8-----8h10--10--10--10p8--8--8--10p8p7--8--7--
G|---------------------7-----7h9--9--9--9p7--7--9--7h9-----9------------------------------------------
D|----------------7h9-----9---------------------------------------------------------------------------
A|----------------------------------------------------------------------------------------------------
E|----------------------------------------------------------------------------------------------------

Stave 9:

E|------------------------------------------------------------------------------------------------------
B|--8p7\5--7--5b7--5-------------------------------------8-----8h10--10--10--10p8--8--10p8p7--7--8p7\5--
G|----------------------------7-----7h9--9--9--9p7--7h9-----9-------------------------------------------
D|-----------------------7h9-----9----------------------------------------------------------------------
A|------------------------------------------------------------------------------------------------------
E|------------------------------------------------------------------------------------------------------

Stave 10:

E|--------------------------------------------
B|--7-------8--10--10b11p8--10-----8----------
G|-----7h9----------------------9-----9p7--9--
D|--------------------------------------------
A|--------------------------------------------
E|--------------------------------------------

http://www.guitartabcreator.com
Guitar Tab Creator is intended to store guitar tab created through the tool. It currently does not support in-line text editing. Any text you place in here will be lost. If you need to comment on your tab, please use the "Tab Notes" section located below.