Skip to main content

Always Full Band

0 1 2 3 4 5 6 7 8 9 10 11 12 13 14 15 16 17 18 19 20 21 22 23
E
B
G
D
A
E
0 1 2 3 4 5 6 7 8 9 10 11 12 13 14 15 16 17 18 19 20 21 22 23
(/) Slide Up  (\) Slide Down  (h) Hammer On  (p) Pull Off  (b) Bend (r) Release (v) Vibrato

Stave 1:

E|-------------------------------------------------------:|--
B|--7------/12---------12-----------------7--9-----7--9--:|--
G|-----------------13------------------------------------:|--
D|-------------------------------------------------------:|--
A|-------------------------------------------------------:|--
E|-------------------------------------------------------:|--

Stave 2:

E|-----------------------------------------:|--
B|-----------------------------------------:|--
G|--2-----------6-----8-----------9-----9--:|--
D|--4-----------7-----7-----------9-----9--:|--
A|--------------------------------7-----7--:|--
E|--------------------------------------0--:|--

Stave 3:

E|--------------------------------7--------------:|--
B|--------7-----------7-----------------------7--:|--
G|-----4-----------4-----------4-----------8-----:|--
D|--6-----------6-----------6-----------9--------:|--
A|-----------------------------------------------:|--
E|-----------------------------------------------:|--

Stave 4:

E|--------------------------0-----------0--:|--
B|-----------------------0-----------4-----:|--
G|--------9-----------1-----------4--------:|--
D|--2-----9--------------------------------:|--
A|--2-----7--------------------------------:|--
E|--0-----0--------------------------------:|--

Stave 5:

E|-------------------------------------:|--
B|-------------------------------------:|--
G|--2-----6----------------------------:|--
D|--4-----7----------------------------:|--
A|--------------------2/9-----9-----9--:|--
E|--------------------0----0-----0-----:|--

							https://www.guitartabcreator.com
Chords

Instruments
{"strings":[[[".","_","_",".",".","_",".",".","_","_","_","_","_",".",".","_",".",".",":|"],[7,"_","_","/",12,"_",".",12,"_","_","_","_","_",7,9,"_",7,9,":|"],[".","_","_",".",".","_",13,".","_","_","_","_","_",".",".","_",".",".",":|"],[".","_","_",".",".","_",".",".","_","_","_","_","_",".",".","_",".",".",":|"],[".","_","_",".",".","_",".",".","_","_","_","_","_",".",".","_",".",".",":|"],[".","_","_",".",".","_",".",".","_","_","_","_","_",".",".","_",".",".",":|"]],[[".","_","_","_",".","_",".","_","_","_",".","_",".",":|"],[".","_","_","_",".","_",".","_","_","_",".","_",".",":|"],[2,"_","_","_",6,"_",8,"_","_","_",9,"_",9,":|"],[4,"_","_","_",7,"_",7,"_","_","_",9,"_",9,":|"],[".","_","_","_",".","_",".","_","_","_",7,"_",7,":|"],[".","_","_","_",".","_",".","_","_","_",".","_",0,":|"]],[[".",".",".","_",".",".",".","_",".",".",7,"_",".",".",".",":|"],[".",".",7,"_",".",".",7,"_",".",".",".","_",".",".",7,":|"],[".",4,".","_",".",4,".","_",".",4,".","_",".",8,".",":|"],[6,".",".","_",6,".",".","_",6,".",".","_",9,".",".",":|"],[".",".",".","_",".",".",".","_",".",".",".","_",".",".",".",":|"],[".",".",".","_",".",".",".","_",".",".",".","_",".",".",".",":|"]],[[".","_",".","_","_","_",".",".",0,"_",".",".",0,":|"],[".","_",".","_","_","_",".",0,".","_",".",4,".",":|"],[".","_",9,"_","_","_",1,".",".","_",4,".",".",":|"],[2,"_",9,"_","_","_",".",".",".","_",".",".",".",":|"],[2,"_",7,"_","_","_",".",".",".","_",".",".",".",":|"],[0,"_",0,"_","_","_",".",".",".","_",".",".",".",":|"]],[[".","_",".","_","_","_",".",".",".",".",".",".",".",":|"],[".","_",".","_","_","_",".",".",".",".",".",".",".",":|"],[2,"_",6,"_","_","_",".",".",".",".",".",".",".",":|"],[4,"_",7,"_","_","_",".",".",".",".",".",".",".",":|"],[".","_",".","_","_","_",2,"/",9,".",9,".",9,":|"],[".","_",".","_","_","_",0,".",".",0,".",0,".",":|"]]],"numberofstrings":6,"notes":["E","B","G","D","A","E","B"],"capo":0,"stringnotes":["E4","B3","G3","D3","A2","E2"],"comments":["Stave 1:","Stave 2:","Stave 3:","Stave 4:","Stave 5:"],"timing":[["Q","Q","Q",null,"Q","Q","Q","Q","Q","Q","Q","Q","Q","Q","Q","Q","Q","Q"],["Q","Q","Q","Q","Q","Q","Q","Q","Q","Q","Q","Q","Q"],["Q","Q","Q","Q","Q","Q","Q","Q","Q","Q","Q","Q","Q","Q","Q"],["Q","Q","Q","Q","Q","Q","Q","Q","Q","Q","Q","Q","Q"],["Q","Q","Q","Q","Q","Q","Q",null,"Q","Q","Q","Q","Q"]],"timingvisible":false,"tabcounter":14,"stave":4,"totalstaves":5,"instrument":"6guitar","selectedtuning":"6_standard","version":"13"}
Submitted by kpwill07 on