Sound will begin in 5 seconds

im note sure yet

Chords
01234567891011121314151617181920212223
E
B
G
D
A
E
B
0 1 2 3 4 5 6 7 8 9 10 11 12 13 14 15 16 17 18 19 20 21 22 23
Song Science #1: How Pros Use 6 Chords to Write Hit Songs
(/) Slide Up  (\) Slide Down  (h) Hammer On  (p) Pull Off  (b) Bend (r) Release (v) Vibrato

Capo Fret 3

Stave 1:

D|--------0-----------0-----------0-----------------
A|--------------------------------------------------
G|-----0-----0-----0-----0-----0-----0-----0-----0--
D|--8-----------7-----------5-----------5-----0-----
C|--------------------------------------------------
E|--------------------------------------------------

Stave 2:

D|--------0-----------0-----------0-----------------
A|--------------------------------------------------
G|-----0-----0-----0-----0-----0-----0-----0-----0--
D|--8-----------7-----------5-----------5-----0-----
C|--0-----------------------0-----------0-----------
E|--------------8-----------------------------------

Stave 3:

D|---------0-------------0------------0-----------0------------0-------------0---------------0-----------------
A|-------------------------------------------------------------------------------------------------------0-----
G|--0---0------0--0---0------0--0--0-----0--0--0-----0--0---0------0--0---0---------0--0--0-----0--0--0-----0--
D|--13-----13-----12-----12-----8-----8-----8-----8-----13-----13-----12-----12/17-----8-----8-----7-----7-----
C|---------0-------------0------------0-----------0------------0-------------0---------------0-----------0-----
E|--0-------------0-------------0-----------0-----------0-------------0----------------0-----------0-----------

Stave 4:

D|--13--12--8--7--8--
A|--0---0---0--0--0--
G|--0---0---0--0--0--
D|--13--13--8--0--0--
C|--0---0---0--9-----
E|-------------------

Stave 5:

D|---------0------------0-----------0-----------0------------0------------0---------------0-----
A|----------------------------------------------------------------------------------------------
G|------0-----0------0-----0-----0-----0-----0-----0------0-----0------0---------0-----0-----0--
D|--13-----------12-----------8-----------------------13-----------12-----12/17-----8-----------
C|--0------------0------------0-----------0-----------0------------0----------------0-----------
E|----------------------------------------------------------------------------------------------

Stave 6:

D|--------------------------
A|--------0-----------------
G|-----0-----0-----0-----0--
D|--8-----------8-----7-----
C|--0-----------0-----0-----
E|--------------------------

Stave 7:

D|--0---0---0--7--
A|--0---0---0--0--
G|--0---0---0--0--
D|--13--12--8--0--
C|--0---0---0--9--
E|--0---0---0--0--

Stave 8:

D|------------0------------------0-----------------0-----------------------
A|----------------------------------0-----------------------------0--------
G|--0------0-----0-----0------0--------0--0-----0-----0--0-----0-----0-----
D|--13-----------------12-----------------8--------------7--------------7--
C|------------------0---------------------------------------0--------------
E|--0---0--------------0---0--------------0--0-----------0-----------------

Stave 9:

D|-----------0--------7p0----------------
A|--------------------0----0-------------
G|--0-----0-----0-----0-------0----------
D|--8-----------------0-------------7p0--
C|-----------------0--9----------9-------
E|--0--0---------------------------------

http://www.guitartabcreator.com
Guitar Tab Creator is intended to store guitar tab created through the tool. It currently does not support in-line text editing. Any text you place in here will be lost. If you need to comment on your tab, please use the "Tab Notes" section located below.