Sound will begin in 5 seconds

Tuomas Holopainen - A Lifetime of Adventure

01234567891011121314151617181920212223
E
B
G
D
A
E
B
0 1 2 3 4 5 6 7 8 9 10 11 12 13 14 15 16 17 18 19 20 21 22 23
Song Science #1: How Pros Use 6 Chords to Write Hit Songs
(/) Slide Up  (\) Slide Down  (h) Hammer On  (p) Pull Off  (b) Bend (r) Release (v) Vibrato

Stave 1:

E|------------------------------------------------------------------------------------
B|------------------------------------------------------------------------------------
G|------------------------------------------------------------------------------------
D|--4b--------------------------------------------------------------------------------
A|----7--5--7--5-----5-----------------------3/5--------------------------------------
E|----------------7-----3------2--3----2--3-------7------3--4--5/7--8--7--5--3--5-----

Stave 2:

E|------------------------------------------------------------------------------------------
B|------------------------------------------------------------------------------------------
G|--------------------------------------------------------------------7--9--12--12--11--11--
D|--------------------------------------------------------------5--7------------------------
A|----------------------5--3----2h3p2--------------7------5--7------------------------------
E|-----2--3--5----3--5-----------------2h3p2------/-----------------------------------------

Stave 3:

E|-----------------------------------------------------------------------------------
B|-----------------------------------------------------------------------------------
G|--7--7--5--5--4--4b--------7--9--11b9--7--9--7h9p7--4------------------------------
D|-------------------------------------------------------7--5--4---------------------
A|--------------------------------------------------------------------5--7--9--9/10--
E|-----------------------------------------------------------------------------------

Stave 4:

E|-----------------------------------------------------------------------------------------
B|-----------------------------------------------------------------------------------------
G|-----------------------------------------------------------------2--3/12-----------------
D|--5--7--------5--7-------------------2b-----------------2--4--5--------------------------
A|--------5v----------5v----2--3/5v--------------2--3--5-----------------------------------
E|---------------------------------------3----5--------------------------------------------

Stave 5:

E|-----------------------------------------------------------------------------------------------
B|-----------------------------------------------------------------------------------------------
G|--5--7-----------------------------------------------------------------------------------------
D|--------5--4v-----------------------5v----------5v--------5v-----5--7/9------------------------
A|---------------7--5--7--5-----5--7--------5--7------5--7------7----------7--5------------------
E|---------------------------7-----------------------------------------------------5bv-----------

Stave 6:

E|-------------------------------------------------------------------------------------------------
B|-------------------------------------------------------------------------------------------------
G|-----------------2b------------------------------------------------------------------------------
D|-----------2--5------------2--4--5--2----------------------------------------------5h7h9--5h7h9--
A|-----2--5------------3--5--------------5--2--------------------------3h5h7--3h5h7----------------
E|--5------------------------------------------5--3------3h5h7--3h5h7------------------------------

Stave 7:

E|----------------------------------------------------------------------------------
B|--------------------------------------------------------------10--12b-------------
G|-----------------------------------------------12b--7--9--11-----------12--11--9--
D|------------------------------5h7h9--5h7h9/---------------------------------------
A|----------------3h5h7--3h5h7------------------------------------------------------
E|--3h5h7--3h5h7--------------------------------------------------------------------

Stave 8:

E|-----------------------------------15----14--15------14--15--21--19----15--17--19----20--19-----
B|--3h5p3----8h10p8----12h15p12-------------------------------------------------------------------
G|------------------------------------------------------------------------------------------------
D|------------------------------------------------------------------------------------------------
A|------------------------------------------------------------------------------------------------
E|------------------------------------------------------------------------------------------------

Stave 9:

E|--17--15--17------15--17--15--17--21--
B|--------------------------------------
G|--------------------------------------
D|--------------------------------------
A|--------------------------------------
E|--------------------------------------

http://www.guitartabcreator.com
Guitar Tab Creator is intended to store guitar tab created through the tool. It currently does not support in-line text editing. Any text you place in here will be lost. If you need to comment on your tab, please use the "Tab Notes" section located below.