Sound will begin in 5 seconds

Random solo June 2015

01234567891011121314151617181920212223
E
B
G
D
A
E
B
0 1 2 3 4 5 6 7 8 9 10 11 12 13 14 15 16 17 18 19 20 21 22 23
Song Science #1: How Pros Use 6 Chords to Write Hit Songs
(/) Slide Up  (\) Slide Down  (h) Hammer On  (p) Pull Off  (b) Bend (r) Release (v) Vibrato

Stave 1:

E|------------------------------5----5--7--8--8/10--8v------12----12--12--14--15/19--17v--
B|--5----5--7--8--8/12--10----------------------------------------------------------------
G|----------------------------------------------------------------------------------------
D|----------------------------------------------------------------------------------------
A|----------------------------------------------------------------------------------------
E|----------------------------------------------------------------------------------------

Stave 2:

E|--19----17--15------------------------------------------------------------------------------
B|----------------19--17--16------------------------------------------------------------------
G|----------------------------17--16--14------------------------------------------------------
D|----------------------------------------17--16--14------------------------------------------
A|----------------------------------------------------17--15--14----12----10----9----6----7v--
E|--------------------------------------------------------------------------------------------

Stave 3:

E|-----------------------------------------------------------------------------------------------
B|-----------------------------------------------------------------------------------------------
G|----------------------8--------------------------------------------------9---------------------
D|------------7--9--10-----10--9--7-------------------7--9--10--9--10--12-----12--10--9--10--12--
A|--7--9--10-------------------------10--9--7--9--10---------------------------------------------
E|-----------------------------------------------------------------------------------------------

Stave 4:

E|----------------------------------------------------------------------
B|--------------------------13------------------------------------------
G|--------------12--14--15------15--14--12----------------------12--14--
D|--12--14--15------------------------------15--14--12--14--15----------
A|----------------------------------------------------------------------
E|----------------------------------------------------------------------

http://www.guitartabcreator.com
Guitar Tab Creator is intended to store guitar tab created through the tool. It currently does not support in-line text editing. Any text you place in here will be lost. If you need to comment on your tab, please use the "Tab Notes" section located below.