Sound will begin in 5 seconds

Random Solo

01234567891011121314151617181920212223
E
B
G
D
A
E
B
0 1 2 3 4 5 6 7 8 9 10 11 12 13 14 15 16 17 18 19 20 21 22 23
Song Science #1: How Pros Use 6 Chords to Write Hit Songs
(/) Slide Up  (\) Slide Down  (h) Hammer On  (p) Pull Off  (b) Bend (r) Release (v) Vibrato

Stave 1:

E|---------------------------------------------------15v----18--17v------17p15p13--15p13p12--13p12p10--
B|----------------10v----13--12v------15v----17--18----------------------------------------------------
G|--9v----11--12---------------------------------------------------------------------------------------
D|-----------------------------------------------------------------------------------------------------
A|-----------------------------------------------------------------------------------------------------
E|-----------------------------------------------------------------------------------------------------

Stave 2:

E|--12p10p9--13--12--10----------------------------------------------------------------------------
B|-----------------------11--10--8-----------------------------------------------------------------
G|----------------------------------10--9--7-------------------------------------------------------
D|--------------------------------------------8--7--5-------------------5-----------------5--6--7--
A|-----------------------------------------------------5v------5--6--7-----7--6--5--6--7-----------
E|-------------------------------------------------------------------------------------------------

Stave 3:

E|----------------------------------------------------------------------------------------------------
B|-----------------------------------------------6--------------------------------------8-------------
G|--5-----------------------------------7--8--9-----9--8--7--8--9--8--9--10--9--10--11-----11--10--9--
D|-----7--6--5--6--7--6--7--8--7--8--9----------------------------------------------------------------
A|----------------------------------------------------------------------------------------------------
E|----------------------------------------------------------------------------------------------------

Stave 4:

E|----------------------------------
B|----------------------------------
G|--10--11--10--11--12--11--12--13--
D|----------------------------------
A|----------------------------------
E|----------------------------------

Stave 5:

E|--
B|--
G|--
D|--
A|--
E|--

Stave 6:

E|--
B|--
G|--
D|--
A|--
E|--

http://www.guitartabcreator.com
Guitar Tab Creator is intended to store guitar tab created through the tool. It currently does not support in-line text editing. Any text you place in here will be lost. If you need to comment on your tab, please use the "Tab Notes" section located below.