Sound will begin in 5 seconds

MELOD SOLO

01234567891011121314151617181920212223
E
B
G
D
A
E
B
0 1 2 3 4 5 6 7 8 9 10 11 12 13 14 15 16 17 18 19 20 21 22 23
Song Science #1: How Pros Use 6 Chords to Write Hit Songs
(/) Slide Up  (\) Slide Down  (h) Hammer On  (p) Pull Off  (b) Bend (r) Release (v) Vibrato

Stave 1:

E|--------------------------------------------------------------------------------------
B|--15--17--18--17h18p17p15--14--15b---11v-----10---------------------------------------
G|-------------------------------------------------12--10--12b---10h12p10p9-----7-------
D|---------------------------------------------------------------------------------11v--
A|--------------------------------------------------------------------------------------
E|--------------------------------------------------------------------------------------

Stave 2:

E|---------------------------------------------------------------------------------------------
B|---------------------------------------------------------------------------------------------
G|------------------10--12------10--12--14--12--14--15--14--15--17-----14--15--17--14--15--18--
D|------11--12--14----------14-----------------------------------------------------------------
A|--12-----------------------------------------------------------------------------------------
E|---------------------------------------------------------------------------------------------

Stave 3:

E|---------------------------------------------------------------------------------------------------------
B|--18--17--15---------------------------------------------------------------------------------------------
G|--------------18--15--14-----------------------------------------------------------------------12h14h15--
D|--------------------------17--15--14-------------------------------------------------12h14h15------------
A|--------------------------------------17--16--13---------------------------12h13h15----------------------
E|--------------------------------------------------17--15--13-----12h13h15--------------------------------

Stave 4:

E|------------------------------------------------------
B|------------14h15h17------------15hh17h18-------------
G|--14h15h17------------15h17h18-------------18--19h21--
D|------------------------------------------------------
A|------------------------------------------------------
E|------------------------------------------------------

http://www.guitartabcreator.com
Guitar Tab Creator is intended to store guitar tab created through the tool. It currently does not support in-line text editing. Any text you place in here will be lost. If you need to comment on your tab, please use the "Tab Notes" section located below.