Sound will begin in 5 seconds

MELOCLASSICAL SOLO

01234567891011121314151617181920212223
E
B
G
D
A
E
B
0 1 2 3 4 5 6 7 8 9 10 11 12 13 14 15 16 17 18 19 20 21 22 23
Song Science #1: How Pros Use 6 Chords to Write Hit Songs
(/) Slide Up  (\) Slide Down  (h) Hammer On  (p) Pull Off  (b) Bend (r) Release (v) Vibrato

Stave 1:

E|--------------------------------------------------------------------------17--19--20--22b
B|--17v-----17--19--20-----19--17--19b---16b---12b------/17-----17--19--20-----------------
G|-----------------------------------------------------------------------------------------
D|-----------------------------------------------------------------------------------------
A|-----------------------------------------------------------------------------------------
E|-----------------------------------------------------------------------------------------

Stave 2:

E|--19--20--19--17----------19--17--15--------------17--15--14-----------------------------------------
B|------------------20--19--------------19--17--16--------------17--15--13-----20--19--17--------------
G|-----------------------------------------------------------------------------------------19--17--16--
D|-----------------------------------------------------------------------------------------------------
A|-----------------------------------------------------------------------------------------------------
E|-----------------------------------------------------------------------------------------------------

Stave 3:

E|----------------------
B|--19--17--------------
G|----------19--17--16--
D|----------------------
A|----------------------
E|----------------------

http://www.guitartabcreator.com
Guitar Tab Creator is intended to store guitar tab created through the tool. It currently does not support in-line text editing. Any text you place in here will be lost. If you need to comment on your tab, please use the "Tab Notes" section located below.