Sound will begin in 5 seconds

As I Stare At The Ocean Alone 3

Chords
01234567891011121314151617181920212223
E
B
G
D
A
E
B
0 1 2 3 4 5 6 7 8 9 10 11 12 13 14 15 16 17 18 19 20 21 22 23
Song Science #1: How Pros Use 6 Chords to Write Hit Songs
(/) Slide Up  (\) Slide Down  (h) Hammer On  (p) Pull Off  (b) Bend (r) Release (v) Vibrato

Stave 1:

E|--------------------------------------------------------------------------
B|--------------------------------------------------------------------------
G|--------------------------------------------------------------------------
D|-----8v-----7v-----7v-----------------8v-----7v------------------7--8--5--
A|--------------------------5--6--9-------------------5v--5--9--9-----------
E|--------------------------------------------------------------------------

Stave 2:

E|-------------------------------------------------------------------------
B|-------------------------------------------------------------------------
G|-------------------------------------------------------------------------
D|-------------------------------------------------------------------------
A|--5-----6-----9--10-----9-----6--5-----6-----3--5-----5-----6-----9--10--
E|-------------------------------------------------------------------------

Stave 3:

E|-----------------------------------------------------------------------------
B|-----------------------------------------------------------------------------
G|-----------------------------------------------------------------------------
D|--7--------5--------6--------7-----------------7--------5--------6--------6--
A|--5--------3--------4--------5-----3--5--7-----5--------3--------4--------4--
E|-----------------------------------------------------------------------------

Stave 4:

E|---------------------
B|---------------------
G|---------------------
D|---------------------
A|--5-----6-----9--10--
E|---------------------

Stave 5:

E|--------------------------------------------------------------------------
B|--------------------------------------------------------------------------
G|--------------------------------------------------------------------------
D|--7--------5--------6--------7--------------7--------5--------6--------6--
A|--5--------3--------4--------5--3--5--7-----5--------3--------4--------4--
E|--------------------------------------------------------------------------

http://www.guitartabcreator.com
Guitar Tab Creator is intended to store guitar tab created through the tool. It currently does not support in-line text editing. Any text you place in here will be lost. If you need to comment on your tab, please use the "Tab Notes" section located below.