Sound will begin in 5 seconds

As I Stare At The Ocean Alone 2

Chords
01234567891011121314151617181920212223
E
B
G
D
A
E
B
0 1 2 3 4 5 6 7 8 9 10 11 12 13 14 15 16 17 18 19 20 21 22 23
Song Science #1: How Pros Use 6 Chords to Write Hit Songs
(/) Slide Up  (\) Slide Down  (h) Hammer On  (p) Pull Off  (b) Bend (r) Release (v) Vibrato

Stave 1:

E|--------------------------------------------------------------------------------------------
B|--------------------------------------------------------------------------------------------
G|--------------------------------------------------------------------------------------------
D|--------------------------------------------------------------------------------------------
A|--9--9--10--10--12--12--13--13--12--15--13h15p13p12--11--10-----10--10-----9--9-------------
E|------------------------------------------------------------------------------------11--11--

Stave 2:

E|---------------------------------------------------------------------------
B|---------------------------------------------------------------------------
G|------------------------------------------------5-----------5-----------7--
D|------------------------------------------------5-----------5-----------7--
A|-------------------------10--12--13--10v--------3-----------3-----------5--
E|--10--10-----10--11--14----------------------------------------------------

Stave 3:

E|----------------------------------------------------------------------------
B|----------------------------------------------------------------------------
G|----------------------------------------------------------------------------
D|----------------------------------------------------------------4-----------
A|--10--------5--10--5--5--5--3--5--5--5--1--5--5--5--3--5--5--5-----5--5--5--
E|----------------------------------------------------------------------------

Stave 4:

E|-----------------------
B|-----------------------
G|-----------------------
D|--------------------5--
A|--3--5--1--5/10-----5--
E|--------------------3--

http://www.guitartabcreator.com
Guitar Tab Creator is intended to store guitar tab created through the tool. It currently does not support in-line text editing. Any text you place in here will be lost. If you need to comment on your tab, please use the "Tab Notes" section located below.