Sound will begin in 5 seconds

EPIC GUITAR SOLO

01234567891011121314151617181920212223
E
B
G
D
A
E
B
0 1 2 3 4 5 6 7 8 9 10 11 12 13 14 15 16 17 18 19 20 21 22 23
Song Science #1: How Pros Use 6 Chords to Write Hit Songs
(/) Slide Up  (\) Slide Down  (h) Hammer On  (p) Pull Off  (b) Bend (r) Release (v) Vibrato

Stave 1:

E|--------------------------------------12-----------------------------------------------------------
B|--------------------------10----11----------11----10h11p10h11p10h11p10h11p10/14v--/15----17----18--
G|----7------x--x--7---------------------------------------------------------------------------------
D|----7------x--x--7---------------------------------------------------------------------------------
A|----5------x--x--5---------------------------------------------------------------------------------
E|---------------------------------------------------------------------------------------------------

Stave 2:

E|--17----18----17h18p17p15----15h17p15p13--------------------------------------------------------
B|--------------------------------------------14v-------------------------------------------------
G|-----------------------------------------------------------------------14v----------------------
D|-----------------------------------------------------12----14----15-------------12----14----15--
A|------------------------------------------------------------------------------------------------
E|------------------------------------------------------------------------------------------------

Stave 3:

E|-------------------------------17v----------------------17--16----17h18p17p16--17v------
B|-------------15----17----18-----------15----17----18------------------------------------
G|--15--14v---------------------------------------------------------------------------19--
D|----------------------------------------------------------------------------------------
A|----------------------------------------------------------------------------------------
E|----------------------------------------------------------------------------------------

Stave 4:

E|--
B|--
G|--
D|--
A|--
E|--

http://www.guitartabcreator.com
Guitar Tab Creator is intended to store guitar tab created through the tool. It currently does not support in-line text editing. Any text you place in here will be lost. If you need to comment on your tab, please use the "Tab Notes" section located below.