Sound will begin in 5 seconds

Corazon Espinado - Santana

01234567891011121314151617181920212223
E
B
G
D
A
E
B
0 1 2 3 4 5 6 7 8 9 10 11 12 13 14 15 16 17 18 19 20 21 22 23
Song Science #1: How Pros Use 6 Chords to Write Hit Songs
(/) Slide Up  (\) Slide Down  (h) Hammer On  (p) Pull Off  (b) Bend (r) Release (v) Vibrato

Stave 1:

E|-------------------------------7--6---------------------------------------------7h10p7------7--
B|----------------------------7--------7-----------------------------------7--10----------10-----
G|--------4h7p4-----4------7--------------9----7--9--9b------9--6--7--9--------------------------
D|--4--7---------7-------------------------------------------------------------------------------
A|-----------------------------------------------------------------------------------------------
E|-----------------------------------------------------------------------------------------------

Stave 2:

E|------14--17--17b--14-------------------------------------------------------
B|--17-------------------17--15--17--17b----17--14--15--17--15--14h15p14------
G|------------------------------------------------------------------------16--
D|----------------------------------------------------------------------------
A|----------------------------------------------------------------------------
E|----------------------------------------------------------------------------

http://www.guitartabcreator.com
Guitar Tab Creator is intended to store guitar tab created through the tool. It currently does not support in-line text editing. Any text you place in here will be lost. If you need to comment on your tab, please use the "Tab Notes" section located below.