Sound will begin in 5 seconds

Burn with me - Amaranthe (solo)

01234567891011121314151617181920212223
E
B
G
D
A
E
B
0 1 2 3 4 5 6 7 8 9 10 11 12 13 14 15 16 17 18 19 20 21 22 23
Song Science #1: How Pros Use 6 Chords to Write Hit Songs
(/) Slide Up  (\) Slide Down  (h) Hammer On  (p) Pull Off  (b) Bend (r) Release (v) Vibrato

Stave 1:

E|------------------------------------------------------------------------------------------------------
B|------------------------------8------------------------------------------8-----------------13--15p13--
G|--9------7------9------5h7/9-----9\7--5--7/9--7------5-----------5--7/9-----7/9----12--14-------------
D|--------------------------------------------------------7--5--7---------------------------------------
A|------------------------------------------------------------------------------------------------------
E|------------------------------------------------------------------------------------------------------

Stave 2:

E|----------------------------------------------------------------------------8--10--8------8--
B|--15b--15--13-----------------------------------12\10----8-----------8--10------------10-----
G|---------------------14--16--17--16b--14--12----------------9--7--9--------------------------
D|---------------------------------------------------------------------------------------------
A|---------------14----------------------------------------------------------------------------
E|---------------------------------------------------------------------------------------------

Stave 3:

E|--12--10--8------17--15--12------
B|-------------10--------------15--
G|---------------------------------
D|---------------------------------
A|---------------------------------
E|---------------------------------

http://www.guitartabcreator.com
Guitar Tab Creator is intended to store guitar tab created through the tool. It currently does not support in-line text editing. Any text you place in here will be lost. If you need to comment on your tab, please use the "Tab Notes" section located below.