Sound will begin in 5 seconds

Black Diamond (solo)

01234567891011121314151617181920212223
E
B
G
D
A
E
B
0 1 2 3 4 5 6 7 8 9 10 11 12 13 14 15 16 17 18 19 20 21 22 23
Song Science #1: How Pros Use 6 Chords to Write Hit Songs
(/) Slide Up  (\) Slide Down  (h) Hammer On  (p) Pull Off  (b) Bend (r) Release (v) Vibrato

Stave 1:

E|--4--9--11--12--11h12p11p9--12--11-----------------4--9--11--12--11h12p11p9--12--11--17--16--14--
B|------------------------------------13-----------------------------------------------------------
G|----------------------------------------13--11---------------------------------------------------
D|-------------------------------------------------------------------------------------------------
A|-------------------------------------------------------------------------------------------------
E|-------------------------------------------------------------------------------------------------

Stave 2:

E|--14h16p14p12--12--11--9--8--------16h17p16p14--12--11--9--8--------9-----11--12--14\
B|-----------------------------9--------------------------------9----------------------
G|-------------------------------------------------------------------------------------
D|-------------------------------------------------------------------------------------
A|-------------------------------------------------------------------------------------
E|-------------------------------------------------------------------------------------

Stave 3:

E|--18--17--15---------------------------------------
B|--------------18--17--15-------------------------\\
G|--------------------------18--15--14---------------
D|--------------------------------------17--15--14\--
A|---------------------------------------------------
E|---------------------------------------------------

http://www.guitartabcreator.com
Guitar Tab Creator is intended to store guitar tab created through the tool. It currently does not support in-line text editing. Any text you place in here will be lost. If you need to comment on your tab, please use the "Tab Notes" section located below.