Sound will begin in 5 seconds

Black Diamond Part 2 (solo)

01234567891011121314151617181920212223
E
B
G
D
A
E
B
0 1 2 3 4 5 6 7 8 9 10 11 12 13 14 15 16 17 18 19 20 21 22 23
Song Science #1: How Pros Use 6 Chords to Write Hit Songs
(/) Slide Up  (\) Slide Down  (h) Hammer On  (p) Pull Off  (b) Bend (r) Release (v) Vibrato

Stave 1:

E|------------------------------------------------------------------------------------------
B|--5--0--0--0--7--0--0--0--8--0--0--0--5--0--0--0--7--0--0--0--8--0--0--0--10--0--0--0--7--
G|------------------------------------------------------------------------------------------
D|------------------------------------------------------------------------------------------
A|------------------------------------------------------------------------------------------
E|------------------------------------------------------------------------------------------

Stave 2:

E|-------------------------------------------------------------------------------------------
B|--12--0--0--0--10--0--0--0--8--0--0--0--7--0--0--0--8--0--0--0--7--0--0--0--5--0--0--0--4--
G|-------------------------------------------------------------------------------------------
D|-------------------------------------------------------------------------------------------
A|-------------------------------------------------------------------------------------------
E|-------------------------------------------------------------------------------------------

Stave 3:

E|----------------------------------------------------
B|--0/5-----5/8--8-----8/12--12-----12/17--17--20--19b
G|----------------------------------------------------
D|----------------------------------------------------
A|----------------------------------------------------
E|----------------------------------------------------

Stave 4:

E|----------------------------------------------15--17--19--17--15--------------------------
B|--16--17--19--17--16--------------16--17--19----------------------19--17--16--19--17--16--
G|----------------------17--16--17----------------------------------------------------------
D|------------------------------------------------------------------------------------------
A|------------------------------------------------------------------------------------------
E|------------------------------------------------------------------------------------------

Stave 5:

E|--------------------------
B|--------------------------
G|--17--16--14--------------
D|--------------17--16--14--
A|--------------------------
E|--------------------------

http://www.guitartabcreator.com
Guitar Tab Creator is intended to store guitar tab created through the tool. It currently does not support in-line text editing. Any text you place in here will be lost. If you need to comment on your tab, please use the "Tab Notes" section located below.