Sound will begin in 5 seconds

Battle Beast - Black Ninja (solo)

01234567891011121314151617181920212223
E
B
G
D
A
E
B
0 1 2 3 4 5 6 7 8 9 10 11 12 13 14 15 16 17 18 19 20 21 22 23
Song Science #1: How Pros Use 6 Chords to Write Hit Songs
(/) Slide Up  (\) Slide Down  (h) Hammer On  (p) Pull Off  (b) Bend (r) Release (v) Vibrato

Capo Fret undefined

Stave 1:

E|------------------------------------------------------------------------------------------
B|------------------------------------------------------------------------------------------
G|--12--12--11---------------------12--12--14--12--11------12p9------11h12p9------16h17p14--
D|----------------12----9------------------------------12-----------------------------------
A|------------------------------------------------------------------------------------------
E|------------------------------------------------------------------------------------------

Stave 2:

E|--12--12----12--10----12--10-----------------------------------------------------
B|------------------------------12--10------10/------------------------------------
G|---------------------------------------------14----12--14--14----16--14--12------
D|-----------------------------------------------------------------------------14--
A|---------------------------------------------------------------------------------
E|---------------------------------------------------------------------------------

Stave 3:

E|-----------------14--15--14--12--14b----17b----14b----13b------
B|---------------------------------------------------------------
G|--12--11--9----------------------------------------------------
D|---------------------------------------------------------------
A|---------------------------------------------------------------
E|---------------------------------------------------------------

Stave 4:

E|--20--19--17--15----------18b----17--15------------------------------------------
B|------------------17--15-----------------17--15--------------------------17--19--
G|-------------------------------------------------17--16--------------16----------
D|---------------------------------------------------------19--17--14--------------
A|---------------------------------------------------------------------------------
E|---------------------------------------------------------------------------------

Stave 5:

E|--------------
B|--17--19--20--
G|--------------
D|--------------
A|--------------
E|--------------

Stave 6:

E|--
B|--
G|--
D|--
A|--
E|--

http://www.guitartabcreator.com
Guitar Tab Creator is intended to store guitar tab created through the tool. It currently does not support in-line text editing. Any text you place in here will be lost. If you need to comment on your tab, please use the "Tab Notes" section located below.