Sound will begin in 5 seconds

A7x - Until the End

01234567891011121314151617181920212223
E
B
G
D
A
E
B
0 1 2 3 4 5 6 7 8 9 10 11 12 13 14 15 16 17 18 19 20 21 22 23
Song Science #1: How Pros Use 6 Chords to Write Hit Songs
(/) Slide Up  (\) Slide Down  (h) Hammer On  (p) Pull Off  (b) Bend (r) Release (v) Vibrato

Stave 1:

E|-----------------------------------------------------------------------------
B|----------------------------------14b---------------14----------14b--14v-----
G|-----------------13b------11---------18------15h16------11-------------------
D|---------11--16---------------11----------------------------11---------------
A|--9--12----------------------------------------------------------------------
E|-----------------------------------------------------------------------------

Stave 2:

E|---------------------------
B|---------------------------
G|--11----11--13----14----14b
D|---------------------------
A|---------------------------
E|---------------------------

Stave 3:

E|--------------------------------------------------------------------------
B|----------------------------------14b---------------14----------14b--14v--
G|-----------------13b------11---------18------15h16------11----------------
D|---------11--16---------------11----------------------------11------------
A|--9--12-------------------------------------------------------------------
E|--------------------------------------------------------------------------

Stave 4:

E|------------------------------------------------------------14b---------------------------------------
B|------------------------------------------------14h15p14p12/------------------------------------------
G|--11----11--13----14----14b------13h14p13p11----------------------------------------------------------
D|------------------------------------------------------------------------------------------------------
A|------------------------------------------------------------------------------------------------------
E|------------------------------------------------------------------------------------------------------

Stave 5:

E|-------------------------------------13b----12--10---------------------
B|--7v------9v------10v----12--15--12-----------------14----12h15p14p12--
G|-----------------------------------------------------------------------
D|-----------------------------------------------------------------------
A|-----------------------------------------------------------------------
E|-----------------------------------------------------------------------

Stave 6:

E|-------------------------9b------10---9---
B|--7v------9v------10v------------10v--9v--
G|------------------------------------------
D|------------------------------------------
A|------------------------------------------
E|------------------------------------------

Stave 7:

E|----------------------------------------------------------2--4------5---------
B|--7v------9v------10v--------------5b----3----2--------2-------------------3--
G|-------------------------7v---------------------------------------------------
D|------------------------------------------------------------------------------
A|------------------------------------------------------------------------------
E|------------------------------------------------------------------------------

Stave 8:

E|--9--14--9--16b----16--19-----------
B|---------------------------17----18b
G|------------------------------------
D|------------------------------------
A|------------------------------------
E|------------------------------------

Stave 9:

E|--17--16--14--9---------15bv--------13--14--16--14b------------
B|-----------------10--7-----------------------------14----------
G|-------------------------------------------------------14--13--
D|---------------------------------------------------------------
A|---------------------------------------------------------------
E|---------------------------------------------------------------

Stave 10:

E|--17----17--17--17--17--17--16--------13--14--16--14b------------
B|-----------------------------------------------------14----------
G|---------------------------------------------------------14--13--
D|-----------------------------------------------------------------
A|-----------------------------------------------------------------
E|-----------------------------------------------------------------

Stave 11:

E|----------16------16--------------16------16--------------16------
B|------14------14------14------14------14------14------14------14--
G|--11----------------------11----------------------11--------------
D|------------------------------------------------------------------
A|------------------------------------------------------------------
E|------------------------------------------------------------------

Stave 12:

E|--16--------------16--19----------16------16b
B|------14------14--------------14------14-----
G|----------11--------------11-----------------
D|---------------------------------------------
A|---------------------------------------------
E|---------------------------------------------

http://www.guitartabcreator.com
Guitar Tab Creator is intended to store guitar tab created through the tool. It currently does not support in-line text editing. Any text you place in here will be lost. If you need to comment on your tab, please use the "Tab Notes" section located below.