Sound will begin in 5 seconds

Xandria - We are Murderers (solo)

01234567891011121314151617181920212223
E
B
G
D
A
E
B
0 1 2 3 4 5 6 7 8 9 10 11 12 13 14 15 16 17 18 19 20 21 22 23
(/) Slide Up  (\) Slide Down  (h) Hammer On  (p) Pull Off  (b) Bend (r) Release (v) Vibrato

Stave 1:

E|------------------------16--17--16-------------------------------------------------------------------
B|--------------------17--------------17---------------------------------------------------------------
G|----------------18----------------------18--16--------------16--17--16------16-----16b16b16--14--16--
D|--11b---11v-------------------------------------19--18--19--------------19---------------------------
A|-----------------------------------------------------------------------------------------------------
E|-----------------------------------------------------------------------------------------------------

Stave 2:

E|-----------------------------------------------------------------------------------------------------
B|-----------------------------------------------------------------------------------------------------
G|--14--14--14--13--13--13--14--14--14--16--16--16-----17--17--17--16--16--16--17--17--17--19--19--19--
D|-----------------------------------------------------------------------------------------------------
A|-----------------------------------------------------------------------------------------------------
E|-----------------------------------------------------------------------------------------------------

Stave 3:

E|-------------------------------------17---------19--------16h18--
B|--------------22b---20--17------------------20-------------------
G|--19b19b19b-----------------19b19b19b----------------------------
D|-----------------------------------------------------------------
A|-----------------------------------------------------------------
E|-----------------------------------------------------------------

http://www.guitartabcreator.com
Guitar Tab Creator is intended to store guitar tab created through the tool. It currently does not support in-line text editing. Any text you place in here will be lost. If you need to comment on your tab, please use the "Tab Notes" section located below.