Sound will begin in 5 seconds

Ode to Leonidas

Chords
01234567891011121314151617181920212223
E
B
G
D
A
E
B
0 1 2 3 4 5 6 7 8 9 10 11 12 13 14 15 16 17 18 19 20 21 22 23
(/) Slide Up  (\) Slide Down  (h) Hammer On  (p) Pull Off  (b) Bend (r) Release (v) Vibrato

Stave 1:

E|---------------------------------------------------
B|---------------------------------------------------
G|---------------------------------------------------
D|--2------------------------------------------------
A|--2-----10-----9-----7-----5-----3-----2--2--0--2--
E|------------0-----0-----0-----0-----0--------------

Stave 2:

E|---------------------------------------------------
B|---------------------------------------------------
G|---------------------------------------------------
D|--2------------------------------------------------
A|--2-----10-----9-----7-----5-----3-----2--2-----3--
E|------------0-----0-----0-----0-----0--------0-----

Stave 3:

E|---------------------------------------------------------------------------
B|---------------------------------------------------------------------------
G|---------------------------------------------------------------------------
D|--2------------------------------------------------------------------------
A|--2-----10-----9-----7-----5-----3-----2--3--5--0-----5--5-----4--4-----2--
E|------------0-----0-----0-----0-----0-----------------3--3-----2--2-----0--

Stave 4:

E|----------------------------------------------
B|----------------------------------------------
G|----------------------------------------------
D|--9-----------9-----------9-----------9--7/9--
A|--7--7--7--7--7--7--7--7--7--7--7--7--7--5-7--
E|----------------------------------------------

Stave 5:

E|-----------------------------------------------
B|-----------------------------------------------
G|-----------------------------------------------
D|--9-----------9-----------9-----------12--7/9--
A|--7--7--7--7--7--7--7--7--7--7--7--7--10--5-7--
E|-----------------------------------------------

http://www.guitartabcreator.com
Guitar Tab Creator is intended to store guitar tab created through the tool. It currently does not support in-line text editing. Any text you place in here will be lost. If you need to comment on your tab, please use the "Tab Notes" section located below.