Sound will begin in 5 seconds

Gone Sovereign (solo)

01234567891011121314151617181920212223
E
B
G
D
A
E
B
0 1 2 3 4 5 6 7 8 9 10 11 12 13 14 15 16 17 18 19 20 21 22 23
Song Science #1: How Pros Use 6 Chords to Write Hit Songs
(/) Slide Up  (\) Slide Down  (h) Hammer On  (p) Pull Off  (b) Bend (r) Release (v) Vibrato

Stave 1:

E|--15--17--18--17--15------------------------------------------------------------------------
B|------------------------------------------15--17--18--17--15--13--11--10--------------------
G|----------------------17--15--14--15--17----------------------------------12--10--9--10/17--
D|--------------------------------------------------------------------------------------------
A|--------------------------------------------------------------------------------------------
E|--------------------------------------------------------------------------------------------

Stave 2:

E|----------------------------------------------
B|----------------------------------------------
G|--15--14--15--------14--15/19\15--15--14--15--
D|----------------------------------------------
A|----------------------------------------------
E|----------------------------------------------

Stave 3:

E|--------------10----------------------10----------------------10----------------------10--12--13--12--10--
B|--10--11--13------13--11--10--11--13------13--11--10--11--13------13--11--10--11--13----------------------
G|----------------------------------------------------------------------------------------------------------
D|----------------------------------------------------------------------------------------------------------
A|----------------------------------------------------------------------------------------------------------
E|----------------------------------------------------------------------------------------------------------

Stave 4:

E|---------------------------------------------
B|--13--11--10---------------------10--11--13--
G|--------------12--10--9--10--12--------------
D|---------------------------------------------
A|---------------------------------------------
E|---------------------------------------------

http://www.guitartabcreator.com
Guitar Tab Creator is intended to store guitar tab created through the tool. It currently does not support in-line text editing. Any text you place in here will be lost. If you need to comment on your tab, please use the "Tab Notes" section located below.