Sound will begin in 5 seconds

Little Wing - 5+ versions consolidated

Chords
01234567891011121314151617181920212223
E
B
G
D
A
E
B
0 1 2 3 4 5 6 7 8 9 10 11 12 13 14 15 16 17 18 19 20 21 22 23
Song Science #1: How Pros Use 6 Chords to Write Hit Songs
(/) Slide Up  (\) Slide Down  (h) Hammer On  (p) Pull Off  (b) Bend (r) Release (v) Vibrato

Stave 1:

E|--12----------------------------|----------3h5r3--3--------------------
B|--12----------------------------|----------3------3--3----3----3-------
G|--12-----------0--------0--0h2--|-------0------------4h5--5r4--5r4-----
D|------------------0--2----------|--------------------5----5----5----5--
A|---------0--2-------------------|--------------------------------------
E|------0-------------------------|--0/3---------------------------------

Stave 2:

E|-------------------0-----------------------|--------0--5r3-----3---------------------
B|-------------------1h3r1-------------------|--------0-------5-----5r3----------------
G|-------------0------------2--------0-------|--------0------------------4\2--0--------
D|-------0--2-----2------------0--2----------|-----2-----------------------------2--0--
A|--------------------------------------0h2--|-----------------------------------------
E|--3/5--------------------------------------|--0--------------------------------------

Stave 3:

E|--------------2-----------5r2-----2-----|-----------0---------------------------------
B|--------2--3-------------------5--------|--3--2-----1--1--1--1--------1----1--1-------
G|-----4--4--------4-------------------0--|--4--3-----2--4--2--0--0--0--0h2--0--0-------
D|-----4-----------------4----------------|--4--3-----------------3--2----------0h2-----
A|--2-----------------2-----2-------------|--2--1--0------------------------------------
E|----------------------------------------|------------------------------------------3--

Stave 4:

E|-----------5/7--5--5-3--3--|--------------------------2--2--2----------------------------
B|-----------3-5--3--3-1--1--|-----1--1h3r1--1----------3--3-------------3-----3-----3-----
G|--------0------------------|-----0--0------0----------2--------2--2h4-----2--------------
D|-----5-----5-7--5--5\3--3--|-----2---------2----------4--------4----------------5-----2--
A|---------------------------|--3---------------3\0--5--5----------------------------------
E|--3------------------------|-------------------------------------------------------------

Stave 5:

E|----------------------------------------------------|--------------------------------------|--
B|-----------------------------3/5--5-----------3--3--|--3-----0--------1--0--0--0-----------|--
G|------------------------0/4-------------------------|-----2-----------0--0--0--0--------0--|--
D|----------------------------------------------------|--------------0--2--0--0--0--0--2-----|--
A|----------------------------------------------------|--------------------------------------|--
E|--10--10--10--10--10\0---------0-----0--0--0--------|--3--------3--------------------------|--

Stave 6:

E|--------------12----------------------------------------------------12--|--
B|--0-----------12------------------------------------------------12------|--
G|--2--2--2-----12--0--0h2r0----------------------------------12----------|--
D|--2-------------------------2r0--2----------------------12--------------|--
A|--0--------0------------------------1h2r1r0-----0h2---------------------|--
E|---------------------------------------------3-------0------------------|--

http://www.guitartabcreator.com
Guitar Tab Creator is intended to store guitar tab created through the tool. It currently does not support in-line text editing. Any text you place in here will be lost. If you need to comment on your tab, please use the "Tab Notes" section located below.