Youngblood

Chords

01234567891011121314151617181920212223
E
B
G
D
A
E
B
0 1 2 3 4 5 6 7 8 9 10 11 12 13 14 15 16 17 18 19 20 21 22 23
(/) Slide Up  (\) Slide Down  (h) Hammer On  (p) Pull Off  (b) Bend (r) Release (v) Vibrato

Stave 1:

E|--------------|--------------|--------------|--------------
B|--------------|--------------|--------------|--------------
G|--------------|--------------|--------------|--------------
D|--1--1--1--1--|--3--3--3--3--|--5--5--5--5--|--8--8--8--8--
A|--1--1--1--1--|--3--3--3--3--|--5--5--5--5--|--8--8--8--8--
E|--1--1--1--1--|--3--3--3--3--|--5--5--5--5--|--8--8--8--8--

Stave 2:

E|--------------|--------------|--------------|--------------
B|--------------|--------------|--------------|--------------
G|--------------|--------------|--------------|--------------
D|--5--5--5--5--|--3--3--8--8--|--1--1--1--1--|--1--1--3--3--
A|--5--5--5--5--|--3--3--8--8--|--1--1--1--1--|--1--1--3--3--
E|--5--5--5--5--|--3--3--8--8--|--1--1--1--1--|--1--1--3--3--

							http://www.guitartabcreator.com
Instruments
{"strings":[[[".",".",".",".","|",".",".",".",".","|",".",".",".",".","|",".",".",".","."],[".",".",".",".","|",".",".",".",".","|",".",".",".",".","|",".",".",".","."],[".",".",".",".","|",".",".",".",".","|",".",".",".",".","|",".",".",".","."],[1,1,1,1,"|",3,3,3,3,"|",5,5,5,5,"|",8,8,8,8],[1,1,1,1,"|",3,3,3,3,"|",5,5,5,5,"|",8,8,8,8],[1,1,1,1,"|",3,3,3,3,"|",5,5,5,5,"|",8,8,8,8]],[[".",".",".",".","|",".",".",".",".","|",".",".",".",".","|",".",".",".","."],[".",".",".",".","|",".",".",".",".","|",".",".",".",".","|",".",".",".","."],[".",".",".",".","|",".",".",".",".","|",".",".",".",".","|",".",".",".","."],[5,5,5,5,"|",3,3,8,8,"|",1,1,1,1,"|",1,1,3,3],[5,5,5,5,"|",3,3,8,8,"|",1,1,1,1,"|",1,1,3,3],[5,5,5,5,"|",3,3,8,8,"|",1,1,1,1,"|",1,1,3,3]]],"numberofstrings":6,"notes":["E","B","G","D","A","E","B"],"capo":0,"stringnotes":["E4","B3","G3","D3","A2","E2"],"comments":["Stave 1:","Stave 2:"],"timing":[["W","W","W","W","W","W","W","W","W",null,"W","W","W","W",null,"W","W","W","W"],["W","W","W","W",null,"W","W","W","W",null,"W","W","W","W",null,"W","W","W","W"]],"timingvisible":false,"tabcounter":18,"stave":1,"totalstaves":2,"instrument":"6guitar","selectedtuning":"6_standard","version":"13"}

Member for

1 year 11 months
Submitted by kokeehunter on Tue, 2020-06-30 15:33