Boy in a Bubble

Chords

01234567891011121314151617181920212223
E
B
G
D
A
E
B
0 1 2 3 4 5 6 7 8 9 10 11 12 13 14 15 16 17 18 19 20 21 22 23
(/) Slide Up  (\) Slide Down  (h) Hammer On  (p) Pull Off  (b) Bend (r) Release (v) Vibrato

Stave 1:

E|--------------------------|-----------------|--------------------|--
B|--------------------------|-----------------|--------------------|--
G|--------------------------|-----------------|-----------5--------|--
D|--5--4--5--4--2-----------|-----------------|--------------------|--
A|-----------------5--4--2--|--2--2--2--4--5--|--5--4--5-----5--2--|--
E|--------------------------|-----------------|--------------------|--

Stave 2:

E|-----------------|--------------------------|-----------------|--
B|-----------------|--------------5-----------|-----------------|--
G|-----------------|-----0--4--0-----4--2--0--|-----------------|--
D|--2-----2--------|--2-----------------------|--0-----0--2--4--|--
A|-----2-----2-----|--------------------------|-----0-----------|--
E|--------------0--|--------------------------|-----------------|--

Stave 3:

E|-----------------------|-----------------|-----------------------|--
B|-----------------------|-----------------|-----------------------|--
G|-----------------------|-----------------|-----------------------|--
D|--0-----2--4-----2--0--|--4--5--4--5--4--|--5--4--5--4--2--------|--
A|-----0-----------------|-----------------|-----------------5--4--|--
E|-----------------------|-----------------|-----------------------|--

Stave 4:

E|--2--|--0--|--2--|-----|--
B|--3--|--0--|--3--|--2--|--
G|--4--|--0--|--2--|--3--|--
D|-----|--2--|-----|--4--|--
A|-----|--2--|-----|-----|--
E|-----|--0--|-----|-----|--

							http://www.guitartabcreator.com
Instruments
{"strings":[[[".",".",".",".",".",".",".",".","|",".",".",".",".",".","|",".",".",".",".",".",".","|"],[".",".",".",".",".",".",".",".","|",".",".",".",".",".","|",".",".",".",".",".",".","|"],[".",".",".",".",".",".",".",".","|",".",".",".",".",".","|",".",".",".",5,".",".","|"],[5,4,5,4,2,".",".",".","|",".",".",".",".",".","|",".",".",".",".",".",".","|"],[".",".",".",".",".",5,4,2,"|",2,2,2,4,5,"|",5,4,5,".",5,2,"|"],[".",".",".",".",".",".",".",".","|",".",".",".",".",".","|",".",".",".",".",".",".","|"]],[[".",".",".",".",".","|",".",".",".",".",".",".",".",".","|",".",".",".",".",".","|"],[".",".",".",".",".","|",".",".",".",".",5,".",".",".","|",".",".",".",".",".","|"],[".",".",".",".",".","|",".",0,4,0,".",4,2,0,"|",".",".",".",".",".","|"],[2,".",2,".",".","|",2,".",".",".",".",".",".",".","|",0,".",0,2,4,"|"],[".",2,".",2,".","|",".",".",".",".",".",".",".",".","|",".",0,".",".",".","|"],[".",".",".",".",0,"|",".",".",".",".",".",".",".",".","|",".",".",".",".",".","|"]],[[".",".",".",".","_",".",".","|",".",".",".",".",".","|",".",".",".",".",".",".",".","|"],[".",".",".",".","_",".",".","|",".",".",".",".",".","|",".",".",".",".",".",".",".","|"],[".",".",".",".","_",".",".","|",".",".",".",".",".","|",".",".",".",".",".",".",".","|"],[0,".",2,4,"_",2,0,"|",4,5,4,5,4,"|",5,4,5,4,2,".",".","|"],[".",0,".",".","_",".",".","|",".",".",".",".",".","|",".",".",".",".",".",5,4,"|"],[".",".",".",".","_",".",".","|",".",".",".",".",".","|",".",".",".",".",".",".",".","|"]],[[2,"|",0,"|",2,"|",".","|"],[3,"|",0,"|",3,"|",2,"|"],[4,"|",0,"|",2,"|",3,"|"],[".","|",2,"|",".","|",4,"|"],[".","|",2,"|",".","|",".","|"],[".","|",0,"|",".","|",".","|"]]],"numberofstrings":6,"notes":["E","B","G","D","A","E","B"],"capo":0,"stringnotes":["E4","B3","G3","D3","A2","E2"],"comments":["Stave 1:","Stave 2:","Stave 3:","Stave 4:"],"timing":[["W","W","W","W","W","W","W","W",null,"W","W","W","W","W",null,"W","W","W","W","W","W"],["W","W","W","W","W",null,"W","W","W","W","W","W","W","W",null,"W","W","W","W","W"],["W","W","W","W",null,"W","W",null,"W","W","W","W","W",null,"W","W","W","W","W","W","W"],["W",null,"W",null,"W",null,"W"]],"timingvisible":false,"tabcounter":8,"stave":3,"totalstaves":4,"instrument":"6guitar","selectedtuning":"6_standard","version":"13"}

Member for

1 year 11 months
Submitted by kokeehunter on Tue, 2020-06-02 10:23