Sound will begin in 5 seconds

bring me back

01234567891011121314151617181920212223
E
B
G
D
A
E
B
0 1 2 3 4 5 6 7 8 9 10 11 12 13 14 15 16 17 18 19 20 21 22 23
Song Science #1: How Pros Use 6 Chords to Write Hit Songs
(/) Slide Up  (\) Slide Down  (h) Hammer On  (p) Pull Off  (b) Bend (r) Release (v) Vibrato

Stave 1:

E|--------------------------------------------------------------------------
B|--------5-----------5-----------1-----------3-----------5-----------5-----
G|-----6-----6-----6-----6-----2-----2-----4-----4-----6-----6-----6-----6--
D|--7-----------7-----------3-----------5-----------7-----------7-----------
A|--------------------------------------------------------------------------
E|--------------------------------------------------------------------------

Stave 2:

E|-----------------------------------------------------------------------------------------------
B|--1--3--3--5--2--x--------------------------2--x-----------------------------2--x--------------
G|--2--4--4--6--2--x--5--x--7--x--7--5-----5--2--x--5--x--7--x--7--5-----5-----2--x--5--x--7--x--
D|--3--5--5--7--2--x--5--x--7--x--------7-----2--x--5--x--7--x--------7-----7--2--x--5--x--7--x--
A|--------------------3--x--5--x--------------------3--x--5--x-----------------------3--x--5--x--
E|-----------------------------------------------------------------------------------------------

Stave 3:

E|-----------------
B|--2--------------
G|--2--5--7--x--x--
D|--2--5--7--x--x--
A|-----3--5--x--x--
E|-----------------

Stave 4:

E|--------------------------------------------------
B|--------------------------------------------------
G|--7--5-----5--7--5-----5--7--5-----5--------------
D|--------7-----------7-----------7-----6--5--3-----
A|-----------------------------------------------5--
E|--------------------------------------------------

Stave 5:

E|------------------------------------------------------------------------------
B|------------------------------------------------------------------------------
G|--12b10--------------12--12--12--10------12b10--------------12--12--10--7--x--
D|---------12--10--12------------------12---------12--10--12--------------7--x--
A|------------------------------------------------------------------------5--x--
E|------------------------------------------------------------------------------

http://www.guitartabcreator.com
Guitar Tab Creator is intended to store guitar tab created through the tool. It currently does not support in-line text editing. Any text you place in here will be lost. If you need to comment on your tab, please use the "Tab Notes" section located below.