Sound will begin in 5 seconds

Poplava

01234567891011121314151617181920212223
E
B
G
D
A
E
B
0 1 2 3 4 5 6 7 8 9 10 11 12 13 14 15 16 17 18 19 20 21 22 23
Song Science #1: How Pros Use 6 Chords to Write Hit Songs
(/) Slide Up  (\) Slide Down  (h) Hammer On  (p) Pull Off  (b) Bend (r) Release (v) Vibrato

Stave 1:

E|-----------------------------
B|-----------------------------
G|--4\6--6--6--4--6--4b6b4--3--
D|-----------------------------
A|-----------------------------
E|-----------------------------

Stave 2:

E|-------------------------------------------------------------------
B|-----------5--7--5b7b5--5--4--2-----------5--5--7--5b7b5--5--4--2--
G|--6--4--6----------------------------------------------------------
D|---------------------------------7--6--7---------------------------
A|-------------------------------------------------------------------
E|-------------------------------------------------------------------

Stave 3:

E|----------------------------------------------------------------------------
B|-----------5--7--5b7b5--------5--5--7--5b7b5-----------------5--------------
G|--4--3--4---------------8--6------------------8--6--8--6--8-----8--8--6-----
D|-------------------------------------------------------------------------9--
A|----------------------------------------------------------------------------
E|----------------------------------------------------------------------------

Stave 4:

E|-----------------
B|-----------------
G|--6--6--6--4--6--
D|-----------------
A|-----------------
E|-----------------

Stave 5:

E|--4--5--4--------------------
B|-----------7--5--4--5--7--4--
G|-----------------------------
D|-----------------------------
A|-----------------------------
E|-----------------------------

Stave 6:

E|--
B|--
G|--
D|--
A|--
E|--

Stave 7:

E|--
B|--
G|--
D|--
A|--
E|--

http://www.guitartabcreator.com
Guitar Tab Creator is intended to store guitar tab created through the tool. It currently does not support in-line text editing. Any text you place in here will be lost. If you need to comment on your tab, please use the "Tab Notes" section located below.