Sound will begin in 5 seconds

So danco samba solo1

Chords
01234567891011121314151617181920212223
E
B
G
D
A
E
B
0 1 2 3 4 5 6 7 8 9 10 11 12 13 14 15 16 17 18 19 20 21 22 23
(/) Slide Up  (\) Slide Down  (h) Hammer On  (p) Pull Off  (b) Bend (r) Release (v) Vibrato

Stave 1:

E|--7--7-------------7--7---------------------------------------------------------------------
B|--------10--7--10--------10--7--10--7h10p7--------------7h10p7-----10/12\10-----10/12\7-----
G|-----------------------------------------------------9--------------------------------------
D|-----------------------------------------------9--9-----------------------------------------
A|--------------------------------------------------------------------------------------------
E|--------------------------------------------------------------------------------------------

Stave 2:

E|-----------------------------------------------------
B|----------7------------------------------------------
G|-----------------------------------------------------
D|--7/9--7-----7--4h7p4-----------4h7p4--7/9--7--------
A|-----------------------7--7--7-----------------9/12--
E|-----------------------------------------------------

Stave 3:

E|--------------------------------15--12-------------12--10--7--10--------------------
B|---------12---------------------12------15--12--------------------12/15--12/15--12--
G|-------------12--14--14-----12--12--------------------------------------------------
D|--12/14-----------------------------------------------------------------------------
A|------------------------------------------------------------------------------------
E|------------------------------------------------------------------------------------

Stave 4:

E|-----------------------------------------------
B|-----------------------------------------------
G|---------------------------16--16--15----------
D|--14--14-----14-----14-----------------16--14--
A|-----------------------------------------------
E|-----------------------------------------------

Stave 5:

E|---------------------------------------
B|--------------------12--12--11---------
G|--9--9-----9-----9--------------11--9--
D|---------------------------------------
A|---------------------------------------
E|---------------------------------------

Stave 6:

E|----------------------------------------------------------------
B|-----------------14--13--12------------10-----10--10--8---------
G|--11--11--11--------------------9--11--------------------11--9--
D|----------------------------------------------------------------
A|----------------------------------------------------------------
E|----------------------------------------------------------------

Stave 7:

E|--
B|--
G|--
D|--
A|--
E|--

http://www.guitartabcreator.com
Guitar Tab Creator is intended to store guitar tab created through the tool. It currently does not support in-line text editing. Any text you place in here will be lost. If you need to comment on your tab, please use the "Tab Notes" section located below.