sampas

Chords

01234567891011121314151617181920212223
E
B
G
D
A
E
B
0 1 2 3 4 5 6 7 8 9 10 11 12 13 14 15 16 17 18 19 20 21 22 23
(/) Slide Up  (\) Slide Down  (h) Hammer On  (p) Pull Off  (b) Bend (r) Release (v) Vibrato

Stave 1:

E|--------------------------------------------------------------------------------------------------
B|--18--------------18------18--------------18------16--------------16------16--------------16------
G|----------17----------------------17----------------------17----------------------17--------------
D|------18--------------18------18----------------------15--------------15------15--------------15--
A|--16----------16----------16----------16------18--16----------16----------16----------16----------
E|--------------------------------------------------------------------------------------------------

Stave 2:

E|--------------------------------------------------------------------------------------------------
B|--12--------------12------12--------------12------14--------------14------14--------------14------
G|----------13----------------------13----------------------13----------------------13--------------
D|------11--------------11------11--------------11------14--------------14------14--------------14--
A|--12----------12----------12----------12----------12----------12----------12----------12----------
E|--------------------------------------------------------------------------------------------------

							http://www.guitartabcreator.com
Instruments
{"title":"","strings":[[[".",".",".",".",".",".",".",".",".",".",".",".",".",".",".",".",".",".",".",".",".",".",".","."],[18,".",".",".",18,".",18,".",".",".",18,".",16,".",".",".",16,".",16,".",".",".",16,"."],[".",".",17,".",".",".",".",".",17,".",".",".",".",".",17,".",".",".",".",".",17,".",".","."],[".",18,".",".",".",18,".",18,".",".",".",".",".",15,".",".",".",15,".",15,".",".",".",15],[16,".",".",16,".",".",16,".",".",16,".",18,16,".",".",16,".",".",16,".",".",16,".","."],[".",".",".",".",".",".",".",".",".",".",".",".",".",".",".",".",".",".",".",".",".",".",".","."]],[[".",".",".",".",".",".",".",".",".",".",".",".",".",".",".",".",".",".",".",".",".",".",".","."],[12,".",".",".",12,".",12,".",".",".",12,".",14,".",".",".",14,".",14,".",".",".",14,"."],[".",".",13,".",".",".",".",".",13,".",".",".",".",".",13,".",".",".",".",".",13,".",".","."],[".",11,".",".",".",11,".",11,".",".",".",11,".",14,".",".",".",14,".",14,".",".",".",14],[12,".",".",12,".",".",12,".",".",12,".",".",12,".",".",12,".",".",12,".",".",12,".","."],[".",".",".",".",".",".",".",".",".",".",".",".",".",".",".",".",".",".",".",".",".",".",".","."]]],"numberofstrings":6,"notes":["E","B","G","D","A","E","B"],"capo":0,"stringnotes":["E4","B3","G3","D3","A2","E2"],"comments":["Stave 1:","Stave 2:"],"timing":[["W","W","W","W","W","W","W","W","W","W","W","W","W","W","W","W","W","W","W","W","W","W","W","W"],["W","W","W","W","W","W","W","W","W","W","W","W","W","W","W","W","W","W","W","W","W","W","W","W"]],"timingvisible":false,"tabcounter":24,"stave":1,"totalstaves":2,"instrument":"6guitar","selectedtuning":"6_standard","version":"13"}

Member for

2 years 7 months
Submitted by klemisrem on Sat, 2018-03-03 05:52