Sound will begin in 5 seconds

riffas

Chords
01234567891011121314151617181920212223
E
B
G
D
A
E
B
0 1 2 3 4 5 6 7 8 9 10 11 12 13 14 15 16 17 18 19 20 21 22 23
(/) Slide Up  (\) Slide Down  (h) Hammer On  (p) Pull Off  (b) Bend (r) Release (v) Vibrato

Stave 1:

E|----------------------------
B|----------------------------
G|----------------------------
D|----------------------2-----
A|--------0-----0--2/4-----4--
E|--2--2-----2----------------

Stave 2:

E|---------------------------
B|---------------------------
G|---------------------------
D|---------------------------
A|--------0-----0--2/4--2p0--
E|--2--2-----2---------------

Stave 3:

E|-------------------------------
B|-------------------------------
G|------------------------9------
D|--4--4--7--4--7--9--11--9--11--
A|--4--4--7--4--7--9--11--7--11--
E|--2--2--5--2--5--7--9------9---

Stave 4:

E|------------------------------------------------------
B|------------------------------------------------------
G|--7--7--7--7--7--7--7--7-----------------8--10--8--7--
D|--7--7--7--7--7--7--7--7--8--8--8--8--8--8--10--8--7--
A|--5--5--5--5--5--5--5--5--8--8--8--8--8--6--8---6--5--
E|--------------------------6--6--6--6--6---------------

Stave 5:

E|------------------------------------------------------
B|------------------------------------------------------
G|--7--7--7--7--7--7--7--7-----------------8--10--8--7--
D|--7--7--7--7--7--7--7--7--8--8--8--8--8--8--10--8--7--
A|--5--5--5--5--5--5--5--5--8--8--8--8--8--6--8---6--5--
E|--------------------------6--6--6--6--6---------------

Stave 6:

E|--------------------------------------------------------------------------------------------
B|--------------------------------------------------------------------------------------------
G|--8--8--8--8--8--8--11--11--11--8--8--8--8--8--8--14--14--14--8--8--8--8--8--8--11--11--11--
D|--8--8--8--8--8--8--11--11--11--8--8--8--8--8--8--14--14--14--8--8--8--8--8--8--11--11--11--
A|--6--6--6--6--6--6--9---9---9---6--6--6--6--6--6--12--12--12--6--6--6--6--6--6--9---9---9---
E|--------------------------------------------------------------------------------------------

Stave 7:

E|---------------------------------
B|---------------------------------
G|--8--8--6--6---------------------
D|--8--8--6--6--7--7--8--8--8--13--
A|--6--6--4--4--7--7--8--8--8--13--
E|--------------5--5--6--6--6--11--

http://www.guitartabcreator.com
Guitar Tab Creator is intended to store guitar tab created through the tool. It currently does not support in-line text editing. Any text you place in here will be lost. If you need to comment on your tab, please use the "Tab Notes" section located below.