Sound will begin in 5 seconds

reggimantas

Chords
01234567891011121314151617181920212223
E
B
G
D
A
E
B
0 1 2 3 4 5 6 7 8 9 10 11 12 13 14 15 16 17 18 19 20 21 22 23
(/) Slide Up  (\) Slide Down  (h) Hammer On  (p) Pull Off  (b) Bend (r) Release (v) Vibrato

Stave 1:

E|--10--10-----7--7-----5--5--5--
B|--10--10-----7--7-----5--7--8--
G|--11--11-----8--8-----6--6--6--
D|--10--10-----7--7-----5--5--5--
A|--12--12-----9--9-----7--7--7--
E|--10--10-----7--7-----5--5--5--

Stave 2:

E|-----------------------------------------------------------------------------------------------------
B|-----19--19--17--17--19--19--17--17--19--19--19--19--19--19--19--19--17--17--17--17------------------
G|-------------------------------------------------------------------------------------19--19--19--19--
D|-----------------------------------------------------------------------------------------------------
A|-----------------------------------------------------------------------------------------------------
E|-----------------------------------------------------------------------------------------------------

Stave 3:

E|---------12-------------------12---------
B|--12b14------12r10-----12b14------12r10--
G|-----------------------------------------
D|-----------------------------------------
A|-----------------------------------------
E|-----------------------------------------

http://www.guitartabcreator.com
Guitar Tab Creator is intended to store guitar tab created through the tool. It currently does not support in-line text editing. Any text you place in here will be lost. If you need to comment on your tab, please use the "Tab Notes" section located below.