Sound will begin in 5 seconds

nuogos.paaugles

Chords
01234567891011121314151617181920212223
E
B
G
D
A
E
B
0 1 2 3 4 5 6 7 8 9 10 11 12 13 14 15 16 17 18 19 20 21 22 23
(/) Slide Up  (\) Slide Down  (h) Hammer On  (p) Pull Off  (b) Bend (r) Release (v) Vibrato

Stave 1:

E|--------2-----------------5---------------------------14--12--------------7--7h9--7--
B|--3-----------2-----7-----------5-----14------12--------------9-----7----------------
G|-------------------------------------------------------------------------------------
D|-------------------------------------------------------------------------------------
A|--2--2-----2-----2--5--5-----5-----5--12--12------12------12--7--7-----7-------------
E|-------------------------------------------------------------------------------------

Stave 2:

E|--9-----9-----9-----7-----7-----7-----------------------------------------------------
B|--9-----9-----9-----7-----7-----7-----14------14------14------18------18------18------
G|--------------------------------------14------14------14------18------18------18------
D|--------------------------------------------------------------------------------------
A|--7--7-----7-----7--5--5-----5-----5--12--12------12------12--16--16------16------16--
E|--------------------------------------------------------------------------------------

Stave 3:

E|--------------------------------------------------------------------------------
B|--7-----7-----7-----2-----2-----2-----1-----1-----1-----0-----0-----3-----3-----
G|--7-----7-----7-----2-----2-----2-----2-----2-----2-----1-----1-----1-----1-----
D|--------------------------------------3-----3-----3-----2-----2-----2-----2-----
A|--5--5-----5-----5--0--0-----0-----0--3-----------------------------------------
E|--------------------------------------1--1-----1-----1--0--0-----0-----0-----0--

Stave 4:

E|--------------------------------------------------------------------------0--
B|--7-----7-----7-----2-----2-----2-----1-----1-----1-----3-----3-----3-----5--
G|--7-----7-----7-----2-----2-----2-----2-----2-----2-----4-----4-----4-----6--
D|--------------------------------------3-----3-----3-----5-----5-----5-----7--
A|--5--5-----5-----5--0--0-----0-----0--3-----------------5-----------------7--
E|--------------------------------------1--1-----1-----1--3--3-----3-----3--5--

http://www.guitartabcreator.com
Guitar Tab Creator is intended to store guitar tab created through the tool. It currently does not support in-line text editing. Any text you place in here will be lost. If you need to comment on your tab, please use the "Tab Notes" section located below.