Sound will begin in 5 seconds

natural high

01234567891011121314151617181920212223
E
B
G
D
A
E
B
0 1 2 3 4 5 6 7 8 9 10 11 12 13 14 15 16 17 18 19 20 21 22 23
(/) Slide Up  (\) Slide Down  (h) Hammer On  (p) Pull Off  (b) Bend (r) Release (v) Vibrato

Stave 1:

E|----------------------------------------
B|------------------------------12v--12v--
G|------------------11--13--14------------
D|------11--13--14------------------------
A|--14------------------------------------
E|----------------------------------------

Stave 2:

E|-----------------------------------------
B|--12/14--14-----12-----12--12--------10--
G|-----------------------------------------
D|-----------------------------------------
A|-----------------------------------------
E|-----------------------------------------

Stave 3:

E|--------------------------7--------------7--------------------------
B|-----------------------------------------------------------------7--
G|--------------------------------------------------------------------
D|--------------------------------------------------------------------
A|--------------------------------------------------------------------
E|--------------------------------------------------------------------

Stave 4:

E|--11------11-------------11----------------------11------11--11----------
B|------12------12-------------12----------------------12----------12------
G|------------------13-------------13----------------------------------13--
D|-------------------------------------------------------------------------
A|-------------------------------------------------------------------------
E|-------------------------------------------------------------------------

Stave 5:

E|------------------------------------------------------------------------------
B|--9-----10--10/12-----------------12/14--14-----14-----14-----14-----14--12v--
G|------------------------------------------------------------------------------
D|------------------------------------------------------------------------------
A|------------------------------------------------------------------------------
E|------------------------------------------------------------------------------

Stave 6:

E|-------------------------
B|--12/14\12---------------
G|---------------11/13\11--
D|-------------------------
A|-------------------------
E|-------------------------

http://www.guitartabcreator.com
Guitar Tab Creator is intended to store guitar tab created through the tool. It currently does not support in-line text editing. Any text you place in here will be lost. If you need to comment on your tab, please use the "Tab Notes" section located below.