moramora

Chords

01234567891011121314151617181920212223
E
B
G
D
A
E
B
0 1 2 3 4 5 6 7 8 9 10 11 12 13 14 15 16 17 18 19 20 21 22 23
(/) Slide Up  (\) Slide Down  (h) Hammer On  (p) Pull Off  (b) Bend (r) Release (v) Vibrato

Stave 1:

E|--------------------------------------------------------------------------
B|-----3--------3-----------3--------3--------3--------3-----------3--------
G|-----3--------3-----------3--------3--------3--------3-----------3--------
D|-----2--------2-----------2--------2--------2--------2-----------2--------
A|--------------------------------------------------------------------------
E|--3-----3--2-----2--3--3-----2--2-----2--3-----3--2-----2--3--3-----2--2--

Stave 2:

E|--------------------------------------------------------------------------
B|-----5--------5-----------5--------5--------5--------5-----------5--------
G|-----5--------5-----------5--------5--------5--------5-----------5--------
D|-----4--------4-----------4--------4--------4--------4-----------4--------
A|--------------------------------------------------------------------------
E|--5-----5--4-----4--5--5-----4--4-----4--5-----5--4-----4--5--5-----4--4--

							http://www.guitartabcreator.com
Instruments
{"title":"","strings":[[[".",".",".",".",".",".",".",".",".",".",".",".",".",".",".",".",".",".",".",".",".",".",".","."],[".",3,".",".",3,".",".",".",3,".",".",3,".",".",3,".",".",3,".",".",".",3,".","."],[".",3,".",".",3,".",".",".",3,".",".",3,".",".",3,".",".",3,".",".",".",3,".","."],[".",2,".",".",2,".",".",".",2,".",".",2,".",".",2,".",".",2,".",".",".",2,".","."],[".",".",".",".",".",".",".",".",".",".",".",".",".",".",".",".",".",".",".",".",".",".",".","."],[3,".",3,2,".",2,3,3,".",2,2,".",2,3,".",3,2,".",2,3,3,".",2,2]],[[".",".",".",".",".",".",".",".",".",".",".",".",".",".",".",".",".",".",".",".",".",".",".","."],[".",5,".",".",5,".",".",".",5,".",".",5,".",".",5,".",".",5,".",".",".",5,".","."],[".",5,".",".",5,".",".",".",5,".",".",5,".",".",5,".",".",5,".",".",".",5,".","."],[".",4,".",".",4,".",".",".",4,".",".",4,".",".",4,".",".",4,".",".",".",4,".","."],[".",".",".",".",".",".",".",".",".",".",".",".",".",".",".",".",".",".",".",".",".",".",".","."],[5,".",5,4,".",4,5,5,".",4,4,".",4,5,".",5,4,".",4,5,5,".",4,4]]],"numberofstrings":6,"notes":["E","B","G","D","A","E","B"],"capo":0,"stringnotes":["E4","B3","G3","D3","A2","E2"],"comments":["Stave 1:","Stave 2:"],"timing":[["W","W","W","W","W","W","W","W","W","W","W","W","W","W","W","W","W","W","W","W","W","W","W","W"],["W","W","W","W","W","W","W","W","W","W","W","W","W","W","W","W","W","W","W","W","W","W","W","W"]],"timingvisible":false,"tabcounter":24,"stave":1,"totalstaves":2,"instrument":"6guitar","selectedtuning":"6_standard","version":"13"}

Member for

2 years 7 months
Submitted by klemisrem on Sat, 2018-03-03 11:26